» » »

Brand New - Jude Law And A Semester Abroad Tabs

Artists:  A B C D E F G H I J K L M N O P Q R S T U V W X Y Z # 

Jude Law And A Semester Abroad Tabs

(ver. 2) Click to play this song!
Brand New
 Rating:
4/5 (4 votes)

 Jude Law And A Semester Abroad lessons Tabs too difficult? Try these video lessons and learn fast
 
                
Intro and Verse 
Lead
e)-----------------------------------------------
B)-----------------------------------------------
G)--------8p7----------7p5-----------------------
D)------8------------8------88-8-8-8-8-8-8-88-8--  (4x)
A)--6-6----------5-5--------88-8-8-8-8-8-8-88-8--
E)--------------------------66-6-6-6-6-6-6-66-6--
 pm . .          . .        ..   .     .   ..

Rhythm (Comes In After Lead Plays Twice)
e)-----------------------------------------------
B)-----------------------------------------------
G)--8888888888--8888888888-----------------------
D)--8888888888--8888888888--8888888888888888888--  (2x)
A)--6666666666--5555555555--8888888888888888888--
E)--------------------------6666666666666666666--
  pm...........................................

Pre Chorus
Lead
e)---------------------------------
B)---------------------------------
G)--------8p7--8x---------7p5------
D)------8------8x-------8------8x--  (2x)
A)--6-6--------5x---5-5--------8x--
E)-----------------------------6x--
 pm . .             . .

Rhythm
e)---------------------------------
B)---------------------------------
G)--8----------8x---8--------------
D)--8-ring-----8x---8-ring-----8x--  (2x)
A)--6----------5x---5----------8x--
E)-----------------------------6x--

Both Guitars
e)--------------------------
B)--------------------------
G)--------------------------
D)--8888888888--6666666666--
A)--8888888888--6666666666--
E)--6666666666--4444444444--

Chorus
Both Guitars
e)------------------------------------------
B)------------------------------------------
G)--88x--88x--------------------------------
D)--88x--88x--1010101010101010--8888888888--
A)--66x--55x--1010101010101010--8888888888--
E)-------------8-8-8-8-8-8-8-8--6666666666--

Rhythm
e)------------------------------------------------------------
B)------------------------------------------------------------
G)--8888888888--8888888888------------------------------------
D)--8888888888--8888888888--10101010101010101010--8888888888--
A)--6666666666--5555555555--10101010101010101010--8888888888--
E)---------------------------8-8-8-8-8-8-8-8-8-8--6666666666--

Lead (Listen Closely To Hear This Part)
e)-----------------------------------------------------------------------
B)-----------------------------------------------------------------------
G)--888-777------888-777--------888-777----1010-88-77--------------------
D)----------5-8-----------8-10-----------88-----------88-1010-1212-1313--
A)-----------------------------------------------------------------------
E)-----------------------------------------------------------------------

Bridge
To Lazy To Tab Lead
Rhythm
e)-------------------------------------------------------------------
B)-------------------------------------------------------------------
G)--8--------8--------8--------8-------------------------------------
D)--8-ring---8-ring---8-ring---8-ring----1010-10---------88-8--------
A)--6--------6--------6--------5---------1010-10--(4x)---88-8--(4x)--
E)----------------------------------------8-8--8---------66-6--------
                                      pm  . .            .. .
e)---------------------------------------------------
B)---------------------------------------------------
G)--8--------8---------------------------------------
D)--8-ring---8-ring----1010-10----------88-8---------
A)--6--------5---------1010-10--(4x)----88-8--(4x)---
E)----------------------8-8--8----------66-6---------
                     pm . .             ..
e)----------------------------------------------
B)----------------------------------------------
G)--8--------8----------------------------------
D)--8-ring---8-ring---10101010101010101010--8x--
A)--6--------5--------10101010101010101010--8x--
E)---------------------8-8-8-8-8-8-8-8-8-8--6x--
                    pm ...................


Outro
Both Guitars (After 2 Times The Lead Guitar Plays The Lead Chorus Riff)
e)-----------------------------------------------------------------
B)-----------------------------------------------------------------
G)--888888888888--888888888888-------------------------------------
D)--888888888888--888888888888-666666666666--101010101010--888888--  (4x)
A)--666666666666--555555555555-666666666666--101010101010--888888--
E)-----------------------------444444444444---8-8-8-8-8-8--666666--

End
e)--------------
B)--------------
G)--8-----------
D)--8-ring------
A)--6-----------
E)--------------
            
Submit corrections


        Jude Law And A Semester Abroad lessons Hard to play? Try these video lessons and learn fast Jude Law And A Semester Abroad lessons
        
↑ Back to top | Tablatures and chords for acoustic guitar and electric guitar, ukulele, drums are parodies/interpretations of the original songs. You may use it for private study, scholarship, research or language learning purposes only