» » »

Brand New - Jesus Christ Tabs

Artists:  A B C D E F G H I J K L M N O P Q R S T U V W X Y Z # 

Jesus Christ Tabs

(ver. 3) Click to play this song!
Brand New
 Rating:
4/5 (4 votes)

 Jesus Christ lessons Tabs too difficult? Try these video lessons and learn fast
 
                Artist - Brand New
Song Title - Jesus Christ
Album - The Devil and God are Raging Inside of Me

intro/verse:

e-----5-------5-------5-------5-------5--------5-------5-------5----|
B---3---3---3---3---3---3---3---3---3---3----3---3---3---3---3---3--|
G-4-------4-------4-------4-------2--------2-------2-------2--------|
D-------------------------------------------------------------------|
A-------------------------------------------------------------------|
E-------------------------------------------------------------------|

intro/solo:

e---------------------------------------------------------------------|
B-5----5h7------------------5h7------------------5h7------------------|
G----7-----------6-7h9-9--7-----------6-7h9-9--7-----------6-7h9-9--7-|
D----------9\7-7----------------9\7-7----------------9\7-7------------|
A---------------------------------------------------------------------|
E---------------------------------------------------------------------|

------------------------|
-5h7--------------------|
------------------------|
-----9\7--7\5--5\4--4-4-|
------------------------|
------------------------|


| /  slide up
| \  slide down
| h  hammer-on
| p  pull-off
| ~  vibrato/let ring
| +  harmonic
| x  Mute note

Mike Solomon
            
Submit corrections


        Jesus Christ lessons Hard to play? Try these video lessons and learn fast Jesus Christ lessons
        
↑ Back to top | Tablatures and chords for acoustic guitar and electric guitar, ukulele, drums are parodies/interpretations of the original songs. You may use it for private study, scholarship, research or language learning purposes only