» » »

Brand New - Jesus Christ Bass

Artists:  A B C D E F G H I J K L M N O P Q R S T U V W X Y Z # 

Jesus Christ Bass

(ver. 1) Click to play this song!
Brand New
 Rating:
4/5 (4 votes)

 Jesus Christ lessons Tabs too difficult? Try these video lessons and learn fast
 
                
Tuning: standard EADG

real easy. i tabbed it out in order, every note. just play straight down the page. a few 
the short measures 2/3 of the way down have a lot of fill. i just generalized it as 
as i could. feel free to improvise.


G|--------------------------------------------------------------------|
D|--------------------------------------------------------------------|
A|--------------------------------------------------------------------|
E|--7777777777777777555555555555555577777777777777775555555555555555--|

G|-------------------------------------------------------------------------|
D|-------------------------------------------------------------------------|
A|--55555555---------------------------55555555----------------------------|
E|-----------77777777-5555555555555555----------77777777-5555555555555555--|

G|--------------------------------------------------------------------|
D|--------------------------------------------------------------------|
A|--------------------------------------------------------------------|
E|--7777777777777777555555555555555577777777777777775555555555555555--|


G|-------------------------------------------------------------------------|
D|-------------------------------------------------------------------------|
A|--55555555---------------------------55555555----------------------------|
E|-----------77777777-5555555555555555----------77777777-5555555555555555--|

G|-------------------------------------------------------------------------|
D|-------------------------------------------------------------------------|
A|--55555555---------------------------55555555----------------------------|
E|-----------77777777-5555555555555555----------77777777-5555555555555555--|


G|--------------------------------------------------------------------|
D|--------------------------------------------------------------------|
A|--------------------------------------------------------------------|
E|--7777777777777777555555555555555577777777777777775555555555555555--|

G|--------------------------------------------------------------------|
D|--------------------------------------------------------------------|
A|--------------------------------------------------------------------|
E|--7777777777777777555555555555555577777777777777775555555555555555--|


G|------------------------------------------|
D|------------------------------------------|
A|------------222-444-55--------------------|
E|--333333333------------/7777777777777795--|

G|------------------------------------------|
D|------------------------------------------|
A|------------222-444-55--------------------|
E|--333333333------------/7777777777777795--|

G|------------------------------------------|
D|------------------------------------------|
A|------------222-444-55--------------------|
E|--333333333------------/7777777777777795--|

G|------------------------------------------|
D|------------------------------------------|
A|------------222-444-55--------------------|
E|--333333333------------/7777777777777795--|

G|------------------------------------------|
D|------------------------------------------|
A|------------222-444-55--------------------|
E|--333333333------------/7777777777775555--|

G|--------------------------------------------|
D|--------------------------------------------|
A|------------222-444-55----------------------|
E|--333333333------------/7777777777775555~~--|

REST for a bit

G|--------------------------------------------------------------------|
D|--------------------------------------------------------------------|
A|--------------------------------------------------------------------|
E|--7777777777777777555555555555555577777777777777775555555555555555--|

G|--------------------------------------------------------------------|
D|--------------------------------------------------------------------|
A|--------------------------------------------------------------------|
E|--7777777777777777555555555555555577777777777777775555555555555555--|

G|-------|
D|-------|
A|-------|
E|--7~~--|


| /  slide up
| \  slide down
| h  hammer-on
| p  pull-off
| ~  vibrato
| +  harmonic
| x  Mute note
===============================================================================
            
Submit corrections


        Jesus Christ lessons Hard to play? Try these video lessons and learn fast Jesus Christ lessons
        
↑ Back to top | Tablatures and chords for acoustic guitar and electric guitar, ukulele, drums are parodies/interpretations of the original songs. You may use it for private study, scholarship, research or language learning purposes only