» » »

Brand New - Jesus Christ Tabs

Artists:  A B C D E F G H I J K L M N O P Q R S T U V W X Y Z # 

Jesus Christ Tabs

(ver. 2) Click to play this song!
Brand New
 Rating:
4/5 (4 votes)

 Jesus Christ lessons Tabs too difficult? Try these video lessons and learn fast
 
                

Tuning: EADGBe (Standard)

Main Riff (0:05)
Played throughout the song by Guitar 1
e| -----5--------5--------5--------5---|
B| ---3---3----3---3----3---3----3---3-|
G| -4--------4--------4--------4-------|
D| ------------------------------------|
A| ------------------------------------|
E| ------------------------------------|

e| -----5--------5--------5--------5---|
B| ---3---3----3---3----3---3----3---3-|
G| -2--------2--------2--------2-------|
D| ------------------------------------|
A| ------------------------------------|
E| ------------------------------------|

Intro Solo  (0:16-0:38)
Played by Guitar 2.
e| ------------------------|
B| -5--3-5/7-----2-3/5-----|
G| ----------4-2-----------|
D| ------------------------|    x3
A| ------------------------|
E| ------------------------|

e| -------------------|
B| -5-3-5/7-3---------|
G| -----------4-2-----|
D| ---------------4---|    x1
A| -------------------|
E| -------------------|

Harmonics (2:21-2:25)
Played by Guitar 2
(Sent to me by Big Red)
e| -(7)---------
B| -----(7)-----
G| ---------(7)-
D| -------------
A| -------------
E| -------------

2nd Solo (2:25-3:10)
Played by Guitar 2.
e| ----------------------|
B| -5-5--3-5/7-----2-3/5-|
G| ----------4-2---------|
D| ----------------------|   x3
A| ----------------------|
E| ----------------------|

e| -------------------|
B| -5-3-5/7-3---------|
G| -----------4-2-----|
D| ---------------4---|      x1
A| -------------------|
E| -------------------|

e| -------------------|
B| -------------------|
G| -4-4-4-4-2---------|
D| -----------5-4h5p4-|
A| -------------------|
E| -------------------|

e| ---------------------|
B| ---------------------|
G| -----2-4-4-4-4-2-----|
D| -2/4-------------5-4-|
A| ---------------------|
E| ---------------------|

e| -------------------|
B| -------------------|
G| -4-4-4-4-2---------|
D| -----------5-4h5p4-|
A| -------------------|
E| -------------------|

e| -------------|
B| -------------|
G| -----2-------|
D| -2/4---4-2/5-|
A| -------------|
E| -------------|

Outro Solo  (4:25)
Same as 2nd solo, except for an added bend at the end of the 2nd line.

End Note (5:10)
e| ---
B| ---
G| ---
D| -4-
A| ---
E| ---

| h  hammer-on
| p  pull-off
| /  slide up
===============================================================================
            
Submit corrections


        Jesus Christ lessons Hard to play? Try these video lessons and learn fast Jesus Christ lessons
        
↑ Back to top | Tablatures and chords for acoustic guitar and electric guitar, ukulele, drums are parodies/interpretations of the original songs. You may use it for private study, scholarship, research or language learning purposes only