» » »

Brand New - Guernica Tabs

Artists:  A B C D E F G H I J K L M N O P Q R S T U V W X Y Z # 

Guernica Tabs

(ver. 3) Click to play this song!
Brand New
 Rating:
4/5 (4 votes)

 Guernica lessons Tabs too difficult? Try these video lessons and learn fast
 
                Brand New - Guernica

Intro 
|---------------------------------------------------------------------------| 
|------------6----11--------------------------------------------------------| 
|--8----6-------------------------------------------------------------------| 
|---------------------------------------------------------------------------| 
|---------------------------------------------------------------------------| 
|---------------------------------------------------------------------------| 


Verse 
|---------------------------------------------------------------------------| 
|---------------------------------------------------------------------------| 
|---------------------------------------------------------------------------| 
|----------------------------------------------6-6--4-4--3-3--4-4-----------| 
|-------------------------------4-4-4-4-4-4-4-------------------------------| 
|--6-6-6-6-6--6-6-6-6-6-6-6--6----------------------------------------------| 

|---------------------------------------------------------------------------| 
|---------------------------------------------------------7---7-------------| 
|------------------------------------------6-8-------6-8--------------------| 
|-------------------------------------6-8---------8-------------------------| 
|----------------------------------6----------------------------------------| 
|--2-2-2-2-2--2-2-2-2-2-2-2--2----------------------------------------------| 


Prechorus 
Guitar 1 
|---------------------------------------------------------------------------| 
|----------6-------7--6-------------6---------------------------------------| 
|--------8---------------6--------8----8------------------------------------| 
|-----8-------------------------8--------8----------------------------------| 
|--6------------4------------6----------------------------------------------| 
|---------------------------------------------------------------------------| 
Guitar 2 
|---------------------------------------------------------------------------| 
|--4--------6----------------4----------------------------------------------| 
|---------------6-------------------6------------8p6--6--8p6--6--8----------| 
|----------------------------------------8----------------------------------| 
|---------------------------------------------------------------------------| 
|---------------------------------------------------------------------------| 


Chorus 
|---------------------------------------------------------------------------| 
|---------------------------------------------------------------------------| 
|--------------------6-6-6-6-6-6-6-6----------------------------------------| 
|--8-8-8-8-8-8-8-8---6-6-6-6-6-6-6-6----6-6-6-6-6-6-6-6-------------| 
|--8-8-8-8-8-8-8-8---4-4-4-4-4-4-4-4----6-6-6-6-6-6-6-6-------------| 
|--6-6-6-6-6-6-6-6----------------------4-4-4-4-4-4-4-4-------------| 

|---------------------------------------------------------------------------| 
|---------------------------------------------------------------------------| 
|---------------------------------------------------------------------------| 
|--8-8-8-8-8-8-8-8---6-6-6-6-6-6-6-6---4-x-x-4-x-x-4-x-x-4-x-x--------------| 
|--8-8-8-8-8-8-8-8---6-6-6-6-6-6-6-6---4-x-x-4-x-x-4-x-x-4-x-x--------------| 
|--6-6-6-6-6-6-6-6---4-4-4-4-4-4-4-4---2-x-x-2-x-x-2-x-x-2-x-x--------------| 


Bridge 
|---------------------------------------------------------------------------| 
|---------------------------------------------------------------------------| 
|-8-8-8-8-8-8-8-8---6-6-6-6-6-6-6-6---3-3-3-3-3-3-3-3---4-4-4-4-4-4-4-4-----| 
|-8-8-8-8-8-8-8-8---6-6-6-6-6-6-6-6---3-3-3-3-3-3-3-3---4-4-4-4-4-4-4-4-----| 
|-6-6-6-6-6-6-6-6---4-4-4-4-4-4-4-4---1-1-1-1-1-1-1-1---2-2-2-2-2-2-2-2-----| 
|---------------------------------------------------------------------------|
            
Submit corrections


        Guernica lessons Hard to play? Try these video lessons and learn fast Guernica lessons
        
↑ Back to top | Tablatures and chords for acoustic guitar and electric guitar, ukulele, drums are parodies/interpretations of the original songs. You may use it for private study, scholarship, research or language learning purposes only