» » »

Brand New - Guernica Tabs

Artists:  A B C D E F G H I J K L M N O P Q R S T U V W X Y Z # 

Guernica Tabs

(ver. 1) Click to play this song!
Brand New
 Rating:
4/5 (4 votes)

 Guernica lessons Tabs too difficult? Try these video lessons and learn fast
 
                
NOTICE:

PM ::::: = palm mutes
h = hammer-one
p = pull-off
* = harmonic

tune down half a step

*tylerd2004's correction is incorrect.  oh snap.

   intro
E|-*12-------------------------------------------------------------------------------------|
B|--------*7--*5---------------------------------------------------------------------------|
G|-----*7----------------------------------------------------------------------------------|
D|-----------------------------------------------------------------------------------------|
A|-----------------------------------------------------------------------------------------|
E|-----------------------------------------------------------------------------------------|

   verse riff
E|-------------------------------------------------------------------------------------------------|
B|-------------------------------------------------------------------------------------------------|
G|-------------------------------------------------------------------------------------------------|
D|-----------------------------------------------7-7-5-5-4-4h5-5-5---------------------------------|
A|---------------------------------5-5-5-5-5-5-5---------------------------------------------------|
E|-0-0-0-0-0-0-0-0-0-0-0-0-0-0-0-0---------------------------------3-3-3-3-3-3-3-3-3-3-3-3-3-3-3-3-|

E|-----------------------------------------------------------------------------------------|
B|---------------3-------3/5-5-5-5---------------------------------------------------------|
G|---------0---0-----0---------------------------------------------------------------------|
D|-------4---4---------4-------------------------------------------------------------------|
A|-2/3-3-----------------------------------------------------------------------------------|
E|-----------------------------------------------------------------------------------------|

   pre chorus
E|-0----------------------------------------------------------------------------------------|
B|-5-\-3---5-/-7-------------------------8-p-7---------------------5-\-3---5-/-7------------|
G|---------------------------------------------7--------------------------------------------|
D|------------------------------------------------------------------------------------------|
A|------------------------------------------------------------------------------------------|
E|------------------------------------------------------------------------------------------|
      ==============================================================================
E|-------------------------------------------------------------------------------------------------|
B|-------------------------------------------------------------------------------------------------|
G|-4---------------------------------7-----------------------------4-------------------------------|
D|-4---------------------------------7-----------------------------4-------------------------------|
A|-2---------------------------------5-----------------------------2-------------------------------|
E|-------------------------------------------------------------------------------------------------|
      ==============================================================================
E|*12-------------------------------------------------------------*12------------------------|
B|-----------------------*7------------------------------------------------------------------|
G|----------------------------------*7----------------------------------------------------*7-|
D|-------------------------------------------------------------------------------------------|
A|-------------------------------------------------------------------------------------------|
E|-------------------------------------------------------------------------------------------|


E|------------------5p0-0--/5-5------------------------------------------------------------|
B|-----------------------------------------------------------------------------------------|
G|-----------------------------------------------------------------------------------------|
D|-----------------------------------------------------------------------------------------|
A|-----------------------------------------------------------------------------------------|
E|-----------------------------------------------------------------------------------------|
      ==============================================================================
E|-----------------------------------------------------------------------------------------|
B|-----------------------------------------------------------------------------------------|
G|-7---------------------------------------------------------------------------------------|
D|-7---------------------------------------------------------------------------------------|
A|-5---------------------------------------------------------------------------------------|
E|-----------------------------------------------------------------------------------------|

      chorus
E|-----------------------------------------------------------------------------------------|
B|-----------------------------------------------------------------------------------------|
G|-4--------7------------------------------4--------2--------------------------------------|
D|-4--------7--------5---------------------4--------2--------------------------------------|
A|-2--------5--------5---------------------2--------0--------2-2-2-2---2-2-2--2-2-2--2-2-2-|
E|-------------------3---------------------------------------0-0-0-0---0-0-0--0-0-0--0-0-0-|
                                                          PM : : :     : :    : :    

E|------------------------------------------------------------------------------------------|
B|------------------------------------------------------------------------------------------|
G|-4--------7------------------------------4--------2---------------------------------------|
D|-4--------7--------5---------------------4--------2---------------------------------------|
A|-2--------5--------5---------------------2--------0--------2-2-2-2---2-2-2--2-2-2-7-7-7-7-|
E|-------------------3---------------------------------------0-0-0-0---0-0-0--0-0-0-5-5-5-5-|
                                                          PM : : :     : :    : : :   

      bridge
E|----------------------------------------------------------------------------------------|
B|----------------------------------------------------------------------------------------|
G|-9-------7-------4-------5-------9-------7----------------------------------------------|
D|-9-------7-------4-------5-------9-------7-------2-2-2-2-2-2-2-2-5-5-5-5----------------|
A|-7-------5-------2-------3-------7-------5-------0-0-0-0-0-0-0-0-3-3-3-3-5-5-5-5--------|
E|-------------------------------------------------------------------------3-3-3-3--------|
                                                PM  : : : : : : : : 
       ==============================================================================
E|-----------------------------------------------------------------------------------------|
B|-----------------------------------------------------------------------------------------|
G|-----44------44------44------44------44------44------------------------------------------|
D|---55--55--55--55--55--55--55--55--55--55--55--55----------------------------------------|
A|-77------55------22------33------77------55----------------------------------------------|
E|-----------------------------------------------------------------------------------------|
            
Submit corrections


        Guernica lessons Hard to play? Try these video lessons and learn fast Guernica lessons
        
↑ Back to top | Tablatures and chords for acoustic guitar and electric guitar, ukulele, drums are parodies/interpretations of the original songs. You may use it for private study, scholarship, research or language learning purposes only