Home » B » Brand New »

Brand New - Guernica Tabs

Artists:  A B C D E F G H I J K L M N O P Q R S T U V W X Y Z # 

Guernica Tabs

(ver. 2) Click to play this song!
Brand New
 Rating:
4/5 (4 votes)
                Ive checked all the other tabs for this song and some are close
but not as close as this one cause i actually listened to the song
if you dare to challenge me or have any comments 



NOTICE:

PM ::::: = palm mutes
h = hammer-one
p = pull-off

Make sure you tune your guitar 1/2 step down for ALL deja songs

   
     Intro
e|-12--10--14--19-----------------------------------------------------------|
B|--------------------------------------------------------------------------|
G|--------------------------------------------------------------------------|
D|--------------------------------------------------------------------------|
A|--------------------------------------------------------------------------|
E|--------------------------------------------------------------------------|

    Verse Riff
e|-------------------------------------------------------------------------------------------------|
B|-------------------------------------------------------------------------------------------------|
G|-------------------------------------------------------------------------------------------------|
D|-----------------------------------------------7-7-5-5-4-4h5-5-5---------------------------------|
A|---------------------------------5-5-5-5-5-5-5---------------------------------------------------|
E|-0-0-0-0-0-0-0-0-0-0-0-0-0-0-0-0---------------------------------3-3-3-3-3-3-3-3-3-3-3-3-3-3-3-3-|

   Verse Riff Continued
e|-----------------------------------------------------------------------------------------|
B|---------------3-------3/5-5-5-5---------------------------------------------------------|
G|---------0---0-----0---------------------------------------------------------------------|
D|-------4---4---------4-------------------------------------------------------------------|
A|-2/3-3-----------------------------------------------------------------------------------|
E|-----------------------------------------------------------------------------------------|

   Pre Chorus-1st guitar
e|-0--------------------------------------------------0--------------------------------|
B|-5-\-3---5-/-7--------8-p-7-------5-\-3---5-/-7-----5-----10-\-5---5-/-7---7-/10-----|
G|--------------------------7----------------------------------------------------------|
D|-------------------------------------------------------------------------------------|
A|-------------------------------------------------------------------------------------|
E|-------------------------------------------------------------------------------------|
   
   Pre Chorus-2nd guitar  
e|-----------------------------------------------------------------------------------|
B|-----------------------------------------------------------------------------------|
G|-4--------------------7-----------4-----------------2------------------------------|
D|-4--------------------7-----------4-----------------2------------------------------|
A|-2--------------------5-----------2-----------------0------------------------------|
E|-----------------------------------------------------------------------------------|

   
   Chorus
e|-------------------------------------------------------------------------|
B|-------------------------------------------------------------------------|
G|-4--------7--------------4--------2--------------------------------------|
D|-4--------7--------5-----4--------2--------2-2-2-2---2-2-2--2-2-2--2-2-2-|
A|-2--------5--------------2--------0--------2-2-2-2---2-2-2--2-2-2--2-2-2-|
E|-------------------3-----------------------0-0-0-0---0-0-0--0-0-0--0-0-0-|
                                          PM : : :     : :    : :    

e|--------------------------------------------------------------------------|
B|--------------------------------------------------------------------------|
G|-4--------7--------------4--------2---------------------------------------|
D|-4--------7--------5-----4--------2---------------------------------------|
A|-2--------5--------5-----2--------0--------2-2-2-2---2-2-2--2-2-2-7-7-7-7-|
E|-------------------3-----------------------0-0-0-0---0-0-0--0-0-0-5-5-5-5-|
                                          PM : : :     : :    : : :   

      Bridge
e|------------------------------------------------------------------------------------|
B|------------------------------------------------------------------------------------|
G|-9-------7-------4-------5-------9-------7------------------------------------------|
D|-9-------7-------4-------5-------9-------7---2-2-2-2-2-2-2-2-5-5-5-5----------------|
A|-7-------5-------2-------3-------7-------5---0-0-0-0-0-0-0-0-3-3-3-3-5-5-5-5--------|
E|---------------------------------------------------------------------3-3-3-3--------|
                                           PM  : : : : : : : : 
      
e|-----------------------------------------------------------------------------------------|
B|-----------------------------------------------------------------------------------------|
G|-----44------44------44------44------44------44------------------------------------------|
D|---55--55--55--55--55--55--55--55--55--55--55--55----------------------------------------|
A|-77------55------22------33------77------55----------------------------------------------|
E|-----------------------------------------------------------------------------------------|
PM ::::::::::::::::::::::::::::::::::::::::::::::::


brand new is the best. period.
            
Submit corrections

↑ Back to top | Tablatures and chords for acoustic guitar and electric guitar, ukulele, drums are parodies/interpretations of the original songs. You may use it for private study, scholarship, research or language learning purposes only