» » »

Brand New - Degausser Tabs

Artists:  A B C D E F G H I J K L M N O P Q R S T U V W X Y Z # 

Degausser Tabs

(ver. 3) Click to play this song!
Brand New
 Rating:
3.6/5 (7 votes)

 Degausser lessons Tabs too difficult? Try these video lessons and learn fast
 
                ######################################################
Tuning:     Half-step down (Eb, Ab, Db, Gb, Bb, eb) ##
######################################################

I got this a little early, when it leaked. =]

They don't really use a rhythm part in this song throughout,
they kind of abandon it and let the lead just go, or they'll
let a chord ring out.  So it's hard to tell.  I'm not sure
if this is even 100%.  I'm still a little iffy on the lead
for the intro and outro, because it's so saturated with
effects.  Also, the lead parts have vibrato thrown in
throughout the song, so just do that, I didn't feel like
tabbing it all out.


###################
## RHYTHM GUITAR ##
###################


INTRO/VERSE PT. 1 (0:00)

e|------------------------------------|
B|------------------------------------|
G|------------------------------------|
D|-10101010101010101010101010101010---|
A|-8-8-8-8-8-8-8-8-8-8-8-8-8-8-8-8----|
E|------------------------------------|

e|------------------------------------|
B|------------------------------------|
G|------------------------------------|
D|-8-8-8-8-8-8-8-8-8-8-8-8-8-8-8-8----|
A|-6-6-6-6-6-6-6-6-6-6-6-6-6-6-6-6----|
E|------------------------------------|

VERSE PT. 2 (0:54)

e|------------------------------------|
B|------------------------------------|
G|------------------------------------|
D|-6-6-6-6-6-6-6-6-6-6-6-6-6-6-6-6----| [X4]
A|-4-4-4-4-4-4-4-4-4-4-4-4-4-4-4-4----|
E|------------------------------------|

e|------------------------------------|
B|------------------------------------|
G|------------------------------------|
D|-8-8-8-8-8-8-8-8-8-8-8-8-8-8-8-8----| [X4]
A|-6-6-6-6-6-6-6-6-6-6-6-6-6-6-6-6----|
E|------------------------------------|

VERSE PT. 1 (1:21)

e|------------------------------------|
B|------------------------------------|
G|------------------------------------|
D|-10101010101010101010101010101010---|
A|-8-8-8-8-8-8-8-8-8-8-8-8-8-8-8-8----|
E|------------------------------------|

e|------------------------------------|
B|------------------------------------|
G|------------------------------------|
D|-8-8-8-8-8-8-8-8-8-8-8-8-8-8-8-8----|
A|-6-6-6-6-6-6-6-6-6-6-6-6-6-6-6-6----|
E|------------------------------------|

VERSE PT. 2 (1:34)

e|------------------------------------|
B|------------------------------------|
G|------------------------------------|
D|-6-6-6-6-6-6-6-6-6-6-6-6-6-6-6-6----| [X4]
A|-4-4-4-4-4-4-4-4-4-4-4-4-4-4-4-4----|
E|------------------------------------|


CHORUS (1:47)

e|------------------------------------|
B|------------------------------------|
G|-10101010101010108-8-8-8-8-8-8-8----|
D|-10101010101010108-8-8-8-8-8-8-8----|
A|-8-8-8-8-8-8-8-8-6-6-6-6-6-6-6-6----|
E|------------------------------------|


RE-ENTRY/VERSE PT. 1 (2:14)

e|------------------------------------|
B|------------------------------------|
G|------------------------------------|
D|-10101010101010101010101010101010---|
A|-8-8-8-8-8-8-8-8-8-8-8-8-8-8-8-8----|
E|------------------------------------|

e|------------------------------------|
B|------------------------------------|
G|------------------------------------|
D|-8-8-8-8-8-8-8-8-8-8-8-8-8-8-8-8----|
A|-6-6-6-6-6-6-6-6-6-6-6-6-6-6-6-6----|
E|------------------------------------|

VERSE PT. 2 (2:41)

e|------------------------------------|
B|------------------------------------|
G|------------------------------------|
D|-6-6-6-6-6-6-6-6-6-6-6-6-6-6-6-6----| [X4]
A|-4-4-4-4-4-4-4-4-4-4-4-4-4-4-4-4----|
E|------------------------------------|


CHORUS (2:54)

e|------------------------------------|
B|------------------------------------|
G|-10101010101010108-8-8-8-8-8-8-8----|
D|-10101010101010108-8-8-8-8-8-8-8----|
A|-8-8-8-8-8-8-8-8-6-6-6-6-6-6-6-6----|
E|------------------------------------|


BRIDGE (3:20)

e|------------------------------------|
B|------------------------------------|
G|-6-6-6-6-6-6-6-6-6-6-6-6-6-6-6-6----|
D|-6-6-6-6-6-6-6-6-6-6-6-6-6-6-6-6----|
A|-4-4-4-4-4-4-4-4-4-4-4-4-4-4-4-4----|
E|------------------------------------|

e|------------------------------------|
B|------------------------------------|
G|-5-5-5-5-5-5-5-5-5-5-5-5-5-5-5-5----|
D|-5-5-5-5-5-5-5-5-5-5-5-5-5-5-5-5----|
A|-3-3-3-3-3-3-3-3-3-3-3-3-3-3-3-3----|
E|------------------------------------|

BREAKDOWN (3:48)

e|------------------------------------|
B|------------------------------------|
G|------------------------------------|
D|-10101010101010101010101010101010---|
A|-8-8-8-8-8-8-8-8-8-8-8-8-8-8-8-8----|
E|------------------------------------|

e|------------------------------------|
B|------------------------------------|
G|------------------------------------|
D|-8-8-8-8-8-8-8-8-8-8-8-8-8-8-8-8----|
A|-6-6-6-6-6-6-6-6-6-6-6-6-6-6-6-6----|
E|------------------------------------|

CHORUS (4:14)

e|------------------------------------|
B|------------------------------------|
G|-10101010101010108-8-8-8-8-8-8-8----|
D|-10101010101010108-8-8-8-8-8-8-8----|
A|-8-8-8-8-8-8-8-8-6-6-6-6-6-6-6-6----|
E|------------------------------------|

BRIDGE (4:41)

e|------------------------------------|
B|------------------------------------|
G|-6-6-6-6-6-6-6-6-6-6-6-6-6-6-6-6----|
D|-6-6-6-6-6-6-6-6-6-6-6-6-6-6-6-6----|
A|-4-4-4-4-4-4-4-4-4-4-4-4-4-4-4-4----|
E|------------------------------------|

e|------------------------------------|
B|------------------------------------|
G|-5-5-5-5-5-5-5-5-5-5-5-5-5-5-5-5----|
D|-5-5-5-5-5-5-5-5-5-5-5-5-5-5-5-5----|
A|-3-3-3-3-3-3-3-3-3-3-3-3-3-3-3-3----|
E|------------------------------------|

OUTRO (4:45)

e|------------------------------------|
B|------------------------------------|
G|------------------------------------|
D|-10101010101010101010101010101010---|
A|-8-8-8-8-8-8-8-8-8-8-8-8-8-8-8-8----|
E|------------------------------------|

e|------------------------------------|
B|------------------------------------|
G|------------------------------------|
D|-8-8-8-8-8-8-8-8-8-8-8-8-8-8-8-8----|
A|-6-6-6-6-6-6-6-6-6-6-6-6-6-6-6-6----|
E|------------------------------------|


#################
## LEAD GUITAR ##
#################


INTRO (0:14)

e|-------------11p8-------------------|
B|------9----8------9-11p9----8~------|
G|--/10---10---------------10---------|
D|------------------------------------|
A|------------------------------------|
E|------------------------------------|


e|--------------------------8---------|
B|-----6-----8p6---11p9---------------|
G|--/8---8-8-----8-------10-----------|
D|------------------------------------|
A|------------------------------------|
E|------------------------------------|


VERSE PT. 1 (0:54)

e|------------------------------------|
B|------------------------------------|
G|-------------------------8-8-5-5----|
D|-5-6-6-6-6-6-6-6-5-6-6-6------------|
A|------------------------------------|
E|------------------------------------|
pm . . . . . . . . . . . . . . . .

e|------------------------------------|
B|------------------------------------|
G|------------------------------------|
D|-5-6-6-6-6-6-6-6-5-6-6-6-8-8-6-6----|
A|------------------------------------|
E|------------------------------------|
pm . . . . . . . . . . . . . . . .

VERSE PT. 2 (1:07)

e|------------------------------------|
B|------------------------------------|
G|-------------------------8-8-5-5----|
D|-5-6-6-6-6-6-6-6-5-6-6-6------------|
A|------------------------------------|
E|------------------------------------|
pm . . . . . . . . . . . . . . . .

e|------------------------------------|
B|------------------------------------|
G|-------------------------3-3-1-0----|
D|-1-3-3-3-3-3-3-3-1-3-3-3------------|
A|------------------------------------|
E|------------------------------------|
pm . . . . . . . . . . . . . . . .

VERSE PT. 1 (1:34)

e|------------------------------------|
B|------------------------------------|
G|-------------------------8-8-5-5----|
D|-5-6-6-6-6-6-6-6-5-6-6-6------------|
A|------------------------------------|
E|------------------------------------|
pm . . . . . . . . . . . . . . . .

e|------------------------------------|
B|------------------------------------|
G|------------------------------------|
D|-5-6-6-6-6-6-6-6-5-6-6-6-8-8-6-6----|
A|------------------------------------|
E|------------------------------------|
pm . . . . . . . . . . . . . . . .


CHORUS (1:47)

e|-8-----8-----8h9-8------------------|
B|---9-6---9-6------------------------|
G|------------------------------------|
D|------------------------------------|
A|------------------------------------|
E|------------------------------------|

e|-6-----6----------------------------|
B|---8-----8--------8-----------------|
G|-----8-----8-8s10-------------------|
D|------------------------------------|
A|------------------------------------|
E|------------------------------------|

e|-8-----8-----8h9-8------------------|
B|---9-6---9-6------------------------|
G|------------------------------------|
D|------------------------------------|
A|------------------------------------|
E|------------------------------------|

e|-6-----6----------------------------|
B|---8-----8--------8-----------------|
G|-----8-----8-8s10-------------------|
D|------------------------------------|
A|------------------------------------|
E|------------------------------------|

e|-8-----20-16----8h9-8---------------|
B|---9-6-------18---------------------|
G|------------------------------------|
D|------------------------------------|
A|------------------------------------|
E|------------------------------------|

e|-6-----6----------------------------|
B|---8-----8--------8-----------------|
G|-----8-----8-8s10-------------------|
D|------------------------------------|
A|------------------------------------|
E|------------------------------------|

e|-8-----20-16----8h9-8---------------|
B|---9-6-------18---------------------|
G|------------------------------------|
D|------------------------------------|
A|------------------------------------|
E|------------------------------------|

e|-6-----6----------------------------|
B|---8-----8--------8-----------------|
G|-----8-----8-8s10-------------------|
D|------------------------------------|
A|------------------------------------|
E|------------------------------------|


RE-ENTRY (2:14)

e|-------------11p8-------------------|
B|------9----8------9-11p9----8~------|
G|--/10---10---------------10---------|
D|------------------------------------|
A|------------------------------------|
E|------------------------------------|


e|--------------------------8---------|
B|-----6-----8p6---11p9---------------|
G|--/8---8-8-----8-------10-----------|
D|------------------------------------|
A|------------------------------------|
E|------------------------------------|

VERSE PT. 2 (2:27)

e|------------------------------------|
B|------------------------------------|
G|-------------------------8-8-5-5----|
D|-5-6-6-6-6-6-6-6-5-6-6-6------------|
A|------------------------------------|
E|------------------------------------|
pm . . . . . . . . . . . . . . . .

e|------------------------------------|
B|------------------------------------|
G|-------------------------3-3-1-0----|
D|-1-3-3-3-3-3-3-3-1-3-3-3------------|
A|------------------------------------|
E|------------------------------------|
pm . . . . . . . . . . . . . . . .

VERSE PT. 1 (2:41)

e|------------------------------------|
B|------------------------------------|
G|-------------------------8-8-5-5----|
D|-5-6-6-6-6-6-6-6-5-6-6-6------------|
A|------------------------------------|
E|------------------------------------|
pm . . . . . . . . . . . . . . . .

e|------------------------------------|
B|------------------------------------|
G|------------------------------------|
D|-5-6-6-6-6-6-6-6-5-6-6-6-8-8-6-6----|
A|------------------------------------|
E|------------------------------------|
pm . . . . . . . . . . . . . . . .


CHORUS (2:54)

e|-8-----8-----8h9-8------------------|
B|---9-6---9-6------------------------|
G|------------------------------------|
D|------------------------------------|
A|------------------------------------|
E|------------------------------------|

e|-6-----6----------------------------|
B|---8-----8--------8-----------------|
G|-----8-----8-8s10-------------------|
D|------------------------------------|
A|------------------------------------|
E|------------------------------------|

e|-8-----8-----8h9-8------------------|
B|---9-6---9-6------------------------|
G|------------------------------------|
D|------------------------------------|
A|------------------------------------|
E|------------------------------------|

e|-6-----6----------------------------|
B|---8-----8--------8-----------------|
G|-----8-----8-8s10-------------------|
D|------------------------------------|
A|------------------------------------|
E|------------------------------------|

e|-8-----20-16----8h9-8---------------|
B|---9-6-------18---------------------|
G|------------------------------------|
D|------------------------------------|
A|------------------------------------|
E|------------------------------------|

e|-6-----6----------------------------|
B|---8-----8--------8-----------------|
G|-----8-----8-8s10-------------------|
D|------------------------------------|
A|------------------------------------|
E|------------------------------------|

e|-8-----20-16----8h9-8---------------|
B|---9-6-------18---------------------|
G|------------------------------------|
D|------------------------------------|
A|------------------------------------|
E|------------------------------------|

e|-6-----6----------------------------|
B|---8-----8--------8-----------------|
G|-----8-----8-8s10-------------------|
D|------------------------------------|
A|------------------------------------|
E|------------------------------------|

BRIDGE (3:20)

e|-------------------------------------|
B|-------------------------------------|
G|-10101010101010101010101012-12-12-12-|
D|-------------------------------------|
A|-8-8-8-8-8-8-8-8-8-8-8-8-10-10-10-10-|
E|-------------------------------------|

e|------------------------------------|
B|------------------------------------|
G|-9-9-9-9-9-9-9-9-9-9-9-9-9-9-9-9----|
D|------------------------------------|
A|-7-7-7-7-7-7-7-7-7-7-7-7-7-7-7-7----|
E|------------------------------------|

e|-------------------------------------|
B|-------------------------------------|
G|-10101010101010101010101012-12-12-12-|
D|-------------------------------------|
A|-8-8-8-8-8-8-8-8-8-8-8-8-10-10-10-10-|
E|-------------------------------------|

e|------------------------------------|
B|------------------------------------|
G|-9-9-9-9-9-9-9-9-9-9-9-9-9-9-9-9----|
D|------------------------------------|
A|-7-7-7-7-7-7-7-7-7-7-7-7-7-7-7-7----|
E|------------------------------------|

e|-------------------------------------|
B|-------------------------------------|
G|-10101010[  ]-12-12-12-1213-13-13-13-|
D|---------[X2]------------------------|
A|-8-8-8-8-[  ]-10-10-10-1011-11-11-11-|
E|-------------------------------------|

e|------------------------------------|
B|------------------------------------|
G|-9-9-9-9-9-9-9-9-9-9-9-9-9-9-9-9----|
D|------------------------------------|
A|-7-7-7-7-7-7-7-7-7-7-7-7-7-7-7-7----|
E|------------------------------------|

e|-------------------------------------|
B|-------------------------------------|
G|-10101010[  ]-12-12-12-1213-13-13-13-|
D|---------[X2]------------------------|
A|-8-8-8-8-[  ]-10-10-10-1011-11-11-11-|
E|-------------------------------------|

e|------------------------------------|
B|------------------------------------|
G|-9-9-9-9-9-9-9-9-9-9-9-9-9-9-9-9----|
D|------------------------------------|
A|-7-7-7-7-7-7-7-7-7-7-7-7-7-7-7-7----|
E|------------------------------------|

BREAKDOWN (3:48)

e|------------------------------------|
B|----8----8h9p8----------------------|
G|-10---10----------------------------|
D|------------------------------------|
A|------------------------------------|
E|------------------------------------|

e|------------------------------------|
B|----8----8----8h9p8-----------------|
G|-10---10---10-----------------------|
D|------------------------------------|
A|------------------------------------|
E|------------------------------------|

CHORUS (4:14)

e|-8-----8-----8h9-8------------------|
B|---9-6---9-6------------------------|
G|------------------------------------|
D|------------------------------------|
A|------------------------------------|
E|------------------------------------|

e|-6-----6----------------------------|
B|---8-----8--------8-----------------|
G|-----8-----8-8s10-------------------|
D|------------------------------------|
A|------------------------------------|
E|------------------------------------|

e|-8-----8-----8h9-8------------------|
B|---9-6---9-6------------------------|
G|------------------------------------|
D|------------------------------------|
A|------------------------------------|
E|------------------------------------|

e|-6-----6----------------------------|
B|---8-----8--------8-----------------|
G|-----8-----8-8s10-------------------|
D|------------------------------------|
A|------------------------------------|
E|------------------------------------|

e|-8-----20-16----8h9-8---------------|
B|---9-6-------18---------------------|
G|------------------------------------|
D|------------------------------------|
A|------------------------------------|
E|------------------------------------|

e|-6-----6----------------------------|
B|---8-----8--------8-----------------|
G|-----8-----8-8s10-------------------|
D|------------------------------------|
A|------------------------------------|
E|------------------------------------|

e|-8-----20-16----8h9-8---------------|
B|---9-6-------18---------------------|
G|------------------------------------|
D|------------------------------------|
A|------------------------------------|
E|------------------------------------|

e|-6-----6----------------------------|
B|---8-----8--------8-----------------|
G|-----8-----8-8s10-------------------|
D|------------------------------------|
A|------------------------------------|
E|------------------------------------|

BRIDGE (4:42)

e|-------------------------------------|
B|-------------------------------------|
G|-10101010[  ]-12-12-12-1213-13-13-13-|
D|---------[X2]------------------------|
A|-8-8-8-8-[  ]-10-10-10-1011-11-11-11-|
E|-------------------------------------|

e|------------------------------------|
B|------------------------------------|
G|-9-9-9-9-9-9-9-9-9-9-9-9-9-9-9-9----|
D|------------------------------------|
A|-7-7-7-7-7-7-7-7-7-7-7-7-7-7-7-7----|
E|------------------------------------|

e|-------------------------------------|
B|-------------------------------------|
G|-10101010[  ]-12-12-12-1213-13-13-13-|
D|---------[X2]------------------------|
A|-8-8-8-8-[  ]-10-10-10-1011-11-11-11-|
E|-------------------------------------|

e|------------------------------------|
B|------------------------------------|
G|-9-9-9-9-9-9-9-9-9-9-9-9-9-9-9-9----|
D|------------------------------------|
A|-7-7-7-7-7-7-7-7-7-7-7-7-7-7-7-7----|
E|------------------------------------|

OUTRO (4:45)

e|-------------11p8-------------------|
B|------9----8------9-11p9----8~------|
G|--/10---10---------------10---------|
D|------------------------------------|
A|------------------------------------|
E|------------------------------------|


e|--------------------------8~--------|
B|-----6-----8p6---11p9---------------|
G|--/8---8-8-----8-------10-----------|
D|------------------------------------|
A|------------------------------------|
E|------------------------------------|
            
Submit corrections


        Degausser lessons Hard to play? Try these video lessons and learn fast Degausser lessons
        
↑ Back to top | Tablatures and chords for acoustic guitar and electric guitar, ukulele, drums are parodies/interpretations of the original songs. You may use it for private study, scholarship, research or language learning purposes only