» » »

Brand New - Degausser Tabs

Artists:  A B C D E F G H I J K L M N O P Q R S T U V W X Y Z # 

Degausser Tabs

(ver. 2) Click to play this song!
Brand New
 Rating:
4/5 (11 votes)

 Degausser lessons Tabs too difficult? Try these video lessons and learn fast
 
                ===================
\    DEGAUSSER    /
/    Brand New    \
===================
Standard Tuning

Into/Verse - Guitar 1
E-------------------------------------|
B------15-12--7b-----7-10-12----------|
G-9-12-----------7-9------------------|
D-------------------------------------|
A-------------------------------------|
E-------------------------------------|

Intro/Verse - Guitar 2
E--------------------------------|
B-8-8-8-8-8-8-8-8-7-7-7-7-7-7-7-7|
G-9-9-9-9-9-9-9-9-7-7-7-7-7-7-7-7|
D-9-9-9-9-9-9-9-9-7-7-7-7-7-7-7-7| 
A-7-7-7-7-7-7-7-7-5-5-5-5-5-5-5-5|
E--------------------------------|

Bridge - Guitar 2
e--------------------------------|
B-3-3-3-3-3-3-3-3-3-3-3-3-3-3-3-3|
G-5-5-5-5-5-5-5-5-5-5-5-5-5-5-5-5|
D-5-5-5-5-5-5-5-5-5-5-5-5-5-5-5-5| x2
A-3-3-3-3-3-3-3-3-3-3-3-3-3-3-3-3|
E--------------------------------|

Chorus - Guitar 1
E-7---7---7h8p7-5-----5---5h7p5--|
B--8---8---------7-----7---------|
G---9---9---------7-----7--------|
D--------------------------------| x4
A--------------------------------|
E--------------------------------|

Chorus - Guitar 2
E--------------------------------|
B-8-8-8-8-8-8-8-8-7-7-7-7-7-7-7-7|
G-9-9-9-9-9-9-9-9-7-7-7-7-7-7-7-7|
D-9-9-9-9-9-9-9-9-7-7-7-7-7-7-7-7| x4
A-7-7-7-7-7-7-7-7-5-5-5-5-5-5-5-5|
E--------------------------------|
            
Submit corrections


        Degausser lessons Hard to play? Try these video lessons and learn fast Degausser lessons
        
↑ Back to top | Tablatures and chords for acoustic guitar and electric guitar, ukulele, drums are parodies/interpretations of the original songs. You may use it for private study, scholarship, research or language learning purposes only