» » »

Brand New - Degausser Bass

Artists:  A B C D E F G H I J K L M N O P Q R S T U V W X Y Z # 

Degausser Bass

(ver. 1) Click to play this song!
Brand New
 Rating:
4/5 (10 votes)

 Degausser lessons Tabs too difficult? Try these video lessons and learn fast
 
                DROP D TUNNG

 Bass comes in @ 0:27
G|-------------------------------------------------------------|X2
D|-------------7/9-9-9-9-9-9-9-7-----------5/7-7-7-7-7-7/9-9---|
A|-5/7-9-7-9-7-------------------5-7-5-7-5---------------------|
D|-------------------------------------------------------------|

Verse
G|-------------|---------------------|-------------|---------------------|
D|-------------|---------------------|-------------|---------------------|
A|-------------|---------------------|-------------|---------------------|
D|-2-2-2--2-2--|-0-0-0--0-0--0h2/6-6-|-2-2-2--2-2--|-0-0-0--0-0--0h2/6-6-|

Prechorus
G|-----------------|-----------------|------------|----------------|
D|-----------------|-----------------|------------|----------------|
A|-3-3-3-3-3-3-3-3-|-3-3-3-3-3-3-3-3-|-3-3-3--3-3-|-2-3-5-3-2-3----|
D|-----------------|-----------------|------------|----------------|

G|-----------------|-----------------|------------|-------------------|
D|-----------------|-----------------|------------|-------------------|
A|-3-3-3-3-3-3-3-3-|-3-3-3-3-3-3-3-3-|-3-3-3--3-3-|-5-5-5-5-5-5-5-5---|
D|-----------------|-----------------|------------|-------------------|

Intro
G|-------------------------------------------------------------|X2
D|-------------7/9-9-9-9-9-9-9-7-----------5/7-7-7-7-7-7/9-9---|
A|-5/7-9-7-9-7-------------------5-7-5-7-5---------------------|
D|-------------------------------------------------------------|

Verse
G|-------------|---------------------|-------------|---------------------|
D|-------------|---------------------|-------------|---------------------|
A|-------------|---------------------|-------------|---------------------|
D|-2-2-2--2-2--|-0-0-0--0-0--0h2/6-6-|-2-2-2--2-2--|-0-0-0--0-0--0h2/6-6-|

Prechorus
G|-----------------|-----------------|------------|----------------|
D|-----------------|-----------------|------------|----------------|
A|-3-3-3-3-3-3-3-3-|-3-3-3-3-3-3-3-3-|-3-3-3--3-3-|-2-3-5-3-2-3----|
D|-----------------|-----------------|------------|----------------|

G|-----------------|-----------------|------------|-------------------|
D|-----------------|-----------------|------------|-------------------|
A|-3-3-3-3-3-3-3-3-|-3-3-3-3-3-3-3-3-|-3-3-3--3-3-|-5-5-5-5-5-5-5-5---|
D|-----------------|-----------------|------------|-------------------|

Chorus:
G|-----------------|-----------------|-----------------|---------------- |X2
D|-----------------|-----------------|-----------------|---------------- |
A|-7-7-7-7-7-7-7-7-|-7-7-7-7-7-7-7-7-|-5-5-5-5-5-5-5-5-|-5-5-5-5-5-5-5-5 |
D|-----------------|-----------------|-----------------|---------------- |

G|-----------------|-----------------|-----------------|-------------------|
D|-----------------|-----------------|-----------------|-------------------|
A|-----------------|-----------------|-5-5-5-5-5-5-5-5-|-5-5-5-5-5-5-5-5---|
D|-2-2-2-2-2-2-2-2-|-2-2-2-2-2-2-2-2-|-----------------|-------------------|

G|-----------------|-----------------|-----------------|------------------|
D|-----------------|-----------------|-----------------|------------------|
A|-7-7-7-7-7-7-7-7-|-7-7-7-7-7-7-7-7-|-5-5-5-5-5-5-5-5-|-5-5-5-5-5-5-5-5--|
D|-----------------|-----------------|-----------------|------------------|

G|-----------------|-----------------|-----------------|------------------|
D|-----------------|-----------------|-----7-----7-----|-----7-----7------|
A|-7-7-7-7-7-7-7-7-|-7-7-7-7-7-7-7-7-|-5-5---5-5---5-5-|-5-5---5-5---5-5--|
D|-----------------|-----------------|-----------------|------------------|

Intro
G|-------------------------------------------------------------|X2
D|-------------7/9-9-9-9-9-9-9-7-----------5/7-7-7-7-7-7/9-9---|
A|-5/7-9-7-9-7-------------------5-7-5-7-5---------------------|
D|-------------------------------------------------------------|

Verse
G|-------------|---------------------|-------------|---------------------|
D|-------------|---------------------|-------------|---------------------|
A|-------------|---------------------|-------------|---------------------|
D|-2-2-2--2-2--|-0-0-0--0-0--0h2/6-6-|-2-2-2--2-2--|-0-0-0--0-0--0h2/6-6-|

Prechorus
G|-----------------|-----------------|------------|----------------|
D|-----------------|-----------------|------------|----------------|
A|-3-3-3-3-3-3-3-3-|-3-3-3-3-3-3-3-3-|-3-3-3--3-3-|-2-3-5-3-2-3----|
D|-----------------|-----------------|------------|----------------|

G|-----------------|-----------------|------------|-------------------|
D|-----------------|-----------------|------------|-------------------|
A|-3-3-3-3-3-3-3-3-|-3-3-3-3-3-3-3-3-|-3-3-3--3-3-|-5-5-5-5-5-5-5-5---|
D|-----------------|-----------------|------------|-------------------|

Chorus
G|-----------------|-----------------|-----------------|---------------- |X2
D|-----------------|-----------------|-----------------|---------------- |
A|-7-7-7-7-7-7-7-7-|-7-7-7-7-7-7-7-7-|-5-5-5-5-5-5-5-5-|-5-5-5-5-5-5-5-5 |
D|-----------------|-----------------|-----------------|---------------- |

G|-----------------|-----------------|-----------------|-------------------|
D|-----------------|-----------------|-----------------|-------------------|
A|-----------------|-----------------|-5-5-5-5-5-5-5-5-|-5-5-5-5-5-5-5-5---|
D|-2-2-2-2-2-2-2-2-|-2-2-2-2-2-2-2-2-|-----------------|-------------------|

G|-----------------|-----------------|-----------------|------------------|
D|-----------------|-----------------|-----------------|------------------|
A|-7-7-7-7-7-7-7-7-|-7-7-7-7-7-7-7-7-|-5-5-5-5-5-5-5-5-|-5-5-5-5-5-5-5-5--|
D|-----------------|-----------------|-----------------|------------------|

G|-----------------|-----------------|-----------------|------------------|
D|-----------------|-----------------|-----7-----7-----|-----7-----7------|
A|-7-7-7-7-7-7-7-7-|-7-7-7-7-7-7-7-7-|-5-5---5-5---5-5-|-5-5---5-5---5-5--|
D|-----------------|-----------------|-----------------|------------------|

Bridge
G|-----------------|-----------------|-----------------|--------------------|X2
D|-----------------|-----------------|-----------------|--------------------|
A|-----------------|-----------------|-----------------|--------------------|
D|-2-2-2-2-2-2-2-2-|-2-2-2-2-2-2-2-2-|-0-0-0-0-0-0-0-0-|-0-0-0-0-0-0-0-0----|

G|-----------------|-----------------|-----------------|--------------------|X2
D|-----------------|-----------------|-----------------|--------------------|
A|-3-3-3-3-3-3-3-3-|-3-3-3-3-3-3-3-3-|-2-2-2-2-2-2-2-2-|-2-2-2-2-2-2-2-2----|
D|-----------------|-----------------|-----------------|--------------------|

Bridge Pt 2
G|-----------|
D|-----------|
A|-----------|
D|-2~~~~-----|

Come back in @ 3:59
G|---------------|
D|---------9-7---|
A|-9-7---7-------|
D|-----9---------|

Chorus @ 4:14
G|-----------------|-----------------|-----------------|---------------- |X2
D|-----------------|-----------------|-----------------|---------------- |
A|-7-7-7-7-7-7-7-7-|-7-7-7-7-7-7-7-7-|-5-5-5-5-5-5-5-5-|-5-5-5-5-5-5-5-5 |
D|-----------------|-----------------|-----------------|---------------- |

G|-----------------|-----------------|-----------------|-------------------|
D|-----------------|-----------------|-----------------|-------------------|
A|-----------------|-----------------|-5-5-5-5-5-5-5-5-|-5-5-5-5-5-5-5-5---|
D|-2-2-2-2-2-2-2-2-|-2-2-2-2-2-2-2-2-|-----------------|-------------------|

G|-----------------|-----------------|-----------------|------------------|
D|-----------------|-----------------|-----------------|------------------|
A|-7-7-7-7-7-7-7-7-|-7-7-7-7-7-7-7-7-|-5-5-5-5-5-5-5-5-|-5-5-5-5-5-5-5-5--|
D|-----------------|-----------------|-----------------|------------------|

G|-----------------|-----------------|-----------------|------------------|
D|-----------------|-----------------|-----7-----7-----|-----7-----7------|
A|-7-7-7-7-7-7-7-7-|-7-7-7-7-7-7-7-7-|-5-5---5-5---5-5-|-5-5---5-5---5-5--|
D|-----------------|-----------------|-----------------|------------------|

Bridge
G|-----------------|-----------------|-----------------|--------------------|X2
D|-----------------|-----------------|-----------------|--------------------|
A|-----------------|-----------------|-----------------|--------------------|
D|-2-2-2-2-2-2-2-2-|-2-2-2-2-2-2-2-2-|-0-0-0-0-0-0-0-0-|-0-0-0-0-0-0-0-0----|

G|-----------------|-----------------|-----------------|--------------------|X2
D|-----------------|-----------------|-----------------|--------------------|
A|-3-3-3-3-3-3-3-3-|-3-3-3-3-3-3-3-3-|-2-2-2-2-2-2-2-2-|-2-2-2-2-2-2-2-2----|
D|-----------------|-----------------|-----------------|--------------------|

(/) Slide Up  (h) Hammer On
            
Submit corrections


        Degausser lessons Hard to play? Try these video lessons and learn fast Degausser lessons
        
↑ Back to top | Tablatures and chords for acoustic guitar and electric guitar, ukulele, drums are parodies/interpretations of the original songs. You may use it for private study, scholarship, research or language learning purposes only