» » »

Warpaint, Elephants Bass tabs (ver.2)

Artists:  A B C D E F G H I J K L M N O P Q R S T U V W X Y Z # 

Elephants Bass tabs (ver.2)

Warpaint Tabs
 Rating:
4/5 (5 votes)
Elephants lessons Tabs too difficult? Try these video lessons and learn fast
                The original tab is made by Janis and can be found here:

fuseaction=viewImage&friendID=361498543&albumID=1064192&imageID=13621248

verse:

G--------------------------------------|
D--------------------------------------|
A---------4-0-2------------------------|
E-4-(4)-4------------------------------|

bridge, later:

G--------11-----------7-----------------|
D---11----------6-----------------------|
A---------------------------------------|
E-9---9------5-----2--------------------|

Jenyy varies the rhythm a little bit later

G-------------------7--------------------|
D---11--11----6--------------------------|
A----------------------------------------|
E-9---9----5-----2-----------------------|
            
Submit corrections

comments powered by Disqus
↑ Back to top | Warpaint Bass for Elephants. Lyrics for acoustic guitar and electric guitar. Tablatures and chords are parodies/interpretations of the original songs. You may use it for private study, scholarship, research or language learning purposes only