» » »

Warpaint, Undertow Bass tabs (ver.1)

Artists:  A B C D E F G H I J K L M N O P Q R S T U V W X Y Z # 

Undertow Bass tabs (ver.1)

Warpaint Tabs
 Rating:
4/5 (5 votes)
Undertow lessons Tabs too difficult? Try these video lessons and learn fast
                




Intro

G||-11----11------11----4-|--------4-------4---||
D||-0-----0-------0-----2-|--------2-------2---||  x2
A||-----------------------|--------------------||
E||-----------------------|--------------------||

G||-2-----2-------2-----4-|--------4-------4---||
D||-0-----0-------0-----2-|--------2-------2---||  x2
A||-----------------------|--------------------||
E||-----------------------|--------------------||


Verse


G||-11----11------11----4-|--------4-------4---||
D||-0-----0-------0-----2-|--------2-------2---||  x2
A||-----------------------|--------------------||
E||-----------------------|--------------------||

G||-2-----2-------2-----4-|--------4-------4---||
D||-0-----0-------0-----2-|--------2-------2---||  x2
A||-----------------------|--------------------||
E||-----------------------|--------------------||

---

G||-11----11------11----4-|--------4-------4---||
D||-0-----0-------0-----2-|--------2-------2---||  x2
A||-----------------------|--------------------||
E||-----------------------|--------------------||

G||-2-----2-------2-----4-|--------4-------4---||
D||-0-----0-------0-----2-|--------2-------2---||  x4
A||-----------------------|--------------------||
E||-----------------------|--------------------||


Chorus

G||-11----11------11----6-|--------6-------6---||
D||-0-----0-------0-----4-|--------4-------4---||  x2
A||-----------------------|--------------------||
E||-----------------------|--------------------||

G||-2-----2-------2-----4-|--------4-------4---||
D||-0-----0-------0-----2-|--------2-------2---||  x4
A||-----------------------|--------------------||
E||-----------------------|--------------------||


verse 2

G||-11----11------11----4-|--------4-------4---||
D||-0-----0-------0-----2-|--------2-------2---||  x2
A||-----------------------|--------------------||
E||-----------------------|--------------------||

G||-2-----2-------2-----4-|--------4-------4---||
D||-0-----0-------0-----2-|--------2-------2---||  x6
A||-----------------------|--------------------||
E||-----------------------|--------------------||


Chorus 2

G||-11----11------11----6-|--------6-------6---||
D||-0-----0-------0-----4-|--------4-------4---||  x2
A||-----------------------|--------------------||
E||-----------------------|--------------------||

G||-2-----2-------2-----4-|--------4-------4---||
D||-0-----0-------0-----2-|--------2-------2---||  x2
A||-----------------------|--------------------||
E||-----------------------|--------------------||


G||------11------11.11\-----|------------------------6-||
D||-0----------0----------4-|----44--4--44--x4-44--4---||  x7
A||-------------------------|--------------------------||
E||-------------------------|--------------------------||

G||------11------11.11\-----|--------------------------||
D||-0----------0----------4-|----44--4--44--x4-44--4-4-||
A||-------------------------|--------------------------||
E||-------------------------|--------------------------||

---

G||--------------------|--------------------|
D||---2----4-----------|--------------------|
A||-2------------------|--------------------|
E||--------------------|--------------------|

G||-4------------------|--------------------||
D||---2----4-----------|--------------------||
A||--------------------|--------------------||
E||--------------------|--------------------||

---

G||--------------------|--------------------||
D||-4------------------|--------------------||  x3
A||--------------------|--------------------||
E||--------------------|--------------------||


G||--------------------|--------------------|
D||-4------------------|-4444-4-44-444--4-4-|
A||--------------------|--------------------|
E||--------------------|--------------------|


Chorus 2

G||------11------11.11\-----|------------------------6-||
D||-0----------0----------4-|----44--4--44--x4-44--4---||  x8
A||-------------------------|--------------------------||
E||-------------------------|--------------------------||

---

G||-2-------------------4-|--------------------||
D||-0-------------------2-|--------------------||  x8
A||-----------------------|--------------------||
E||-----------------------|--------------------||


Verse 3

G||---11.11--11p9-11.11--11.11-11--11-11-|---66--4h666-6666--6-6/-||
D||---0----------------------------------|---4--------------------||  x4
A||--------------------------------------|------------------------||
E||--------------------------------------|------------------------||

G||---11.11--11p9-11.11--11.11-11--11-11-|--------------------||
D||---0----------------------------------|---2--2-2--2-2--2-2-||  x4
A||--------------------------------------|--------------------||
E||--------------------------------------|--------------------||

G||---11.11--11p9-11.11--11.11-11--11-11-|---66--4h666-6666--6-6/-||
D||---0----------------------------------|---4--------------------||  x3
A||--------------------------------------|------------------------||
E||--------------------------------------|------------------------||

G||---11.11--11p9-11.11--11.11-11--11-11-|---66--4h666------------||
D||---0----------------------------------|---4--------------------||  
A||--------------------------------------|------------------------||
E||--------------------------------------|------------------------||
            
Submit corrections

comments powered by Disqus
↑ Back to top | Warpaint Bass for Undertow. Lyrics for acoustic guitar and electric guitar. Tablatures and chords are parodies/interpretations of the original songs. You may use it for private study, scholarship, research or language learning purposes only