» » »

Burgundy Tabs (ver.1)

Artists:  A B C D E F G H I J K L M N O P Q R S T U V W X Y Z # 

Burgundy Tabs (ver.1)

Warpaint
Rating:
0/5 (0 votes)

Hard to play? Try these video lessons and learn fast.
                -----------------7-7----------------------------7-7-5-5-------------|
--7--0--7-7-0-7------10-10-------------7-7-0-7----------5-5-7-------|  1st riff
---------------------------9-9-11--7-0-------------------------7-0--|
--------------------------------------------------------------------|
--------------------------------------------------------------------|
--------------------------------------------------------------------|


----------7-7----------------------------7-7-5-5--------------------|
-7-7-0-7------10-10-------------7-7-0-7----------5-5-7--------------|  2nd riff
--------------------9-9-11--7-0-------------------------7-0---------|
--------------------------------------------------------------------| (play as
--------------------------------------------------------------------| many times
--------------------------------------------------------------------| as needed)

I understand it may not be completely accurate, but it does sound
just about right and works nicely when playing along to the song
or playing with a bassist. A great song, enjoy!
            
Hard to play? Try these video lessons and learn fast. | Correct




comments powered by Disqus
↑ Back to top | Tablatures and chords are parodies/interpretations of the original songs. You may use it for private study, scholarship, research or language learning purposes only