» » »

Warpaint, Warpaint Bass tabs (ver.1)

Artists:  A B C D E F G H I J K L M N O P Q R S T U V W X Y Z # 

Warpaint Bass tabs (ver.1)

Warpaint Tabs
 Rating:
4.2/5 (5 votes)
Warpaint lessons Tabs too difficult? Try these video lessons and learn fast
                Warpaint by Warpaint
(The Fool)

Any feedback is appreciated!
Should be accurate, sounds fine to me :)

Standard Tuning (EADG)

Legend:
/ - Slide up
\ - Slide down
~ - Hold Note

Bass comes in at 0:50

G --7-9---7-9---7-9---7-99/10\9-7-9-|
D ----------------------------------|   x8
A 7-----7-----7-----7---------------|
E ----------------------------------|

(1:25)

G ------------------|
D ----------------5-|   x8
A ------------------|
E 003300330033003---|

Slight variation with the octave on the 6th and 8th time:

G ----------------5-|
D ------------------|
A --------------3---|
E 00330033003300----|

(2:01)

G ---9-9-9-------9-7-5-0-5-        G ---9-9-9-------9-7-5-----|
D -------------------------   x4   D -------------------------|   x4
A ---------77--------------        A ---------77----------3-3-|
E 0-----------0------------        E 0-----------0------------|

(2:39)

G --------------------------------|
D --------------------------------|
A --------------------------------|
E 0~~~~~~~3~~~~~~~0~~~~~~~3~~~~~~~|

(2:48)

G --------------------|
D --------------------|   x8
A 22222222------------|
E --------33333333----|

(3:24)

G --------------------------|
D ---2-55---------2-55------|   x4
A -------55-32--------55-35-|
E 0------------0------------|

(3:42)

G -------------------------------------|
D --2---2---2---2------2---2---2---2-5-|   x2
A ---------------3------------------3--|
E 0---0---0---0---3--0---0---0---0-----|

(4:00)

G --------------------------------|
D --------------------------------|
A --------------------------------|
E 0~~~~~~~3~~~~~~~0~~~~~~~3~~~~~~~

(4:05)

G --------------------|
D --------------------|   x9
A 22222222------------|
E --------33333333----|

(Up the neck)

G ----------------------|
D -----------------55-7-|
A 22222222--------------|
E --------3333333-3-----|

(4:42)

G -----------121212------------------|
D 99-----------------99--------------|   x2
A --9~910~10-----------9~910~10-1212-|
E -----------------------------------|

(Back down the neck)

G --------|
D 14-12-9-|
A --------|
E --------|

(5:00)

G --------------------------|
D ---2-55---------2-55------|   x4
A -------55-32--------55-35-|
E 0------------0------------|

Finish on an open E
            
Submit corrections

comments powered by Disqus
↑ Back to top | Warpaint Bass for Warpaint. Lyrics for acoustic guitar and electric guitar. Tablatures and chords are parodies/interpretations of the original songs. You may use it for private study, scholarship, research or language learning purposes only