» » »

Warpaint, Bees Bass tabs (ver.1)

Artists:  A B C D E F G H I J K L M N O P Q R S T U V W X Y Z # 

Bees Bass tabs (ver.1)

Warpaint Tabs
 Rating:
4/5 (5 votes)
Bees lessons Tabs too difficult? Try these video lessons and learn fast
1
                -------------------------------------------------------------------------------
-------------------------------------------------------------------------------


Tuning: standard

(0:00-1:00)
G|-1010101010-99999-9-9-10101010-99999-12121212------------------------------|
D|---------------------------------------------------------------------------|
A|---------------------------------------------------------------------------|
E|---------------------------------------------------------------------------|

(1:01-1:19)
G|---------------------------------------------------------------------------|
D|----------------------0202-------------------------------------------------|
A|---------------------------------------------------------------------------|
E|-1-1-1-0-3-1-1-1-0---------------------------------------------------------|

(1:20-1:37)
G|-1010101010-9999-9-9-10101010-9999-12121212--------------------------------|
D|---------------------------------------------------------------------------|
A|---------------------------------------------------------------------------|
E|---------------------------------------------------------------------------|

(1:38-2:15)
G|---------------------------------------------------------------------------|
D|------------------------0202-----------------------------------------------|
A|---------------------------------------------------------------------------|
E|-1-1-1--0-3--1-1-1-0-------------------------------------------------------|

(2:16-2:33)
G|---------------------------------------------------------------------------|
D|-----202020202-------------------------------------------------------------|
A|---------------------------------------------------------------------------|
E|-0-------------------------------------------------------------------------|

(2:34-2:48)
G|-8-------------------------------------------------------------------------|
D|---9--7-0-------5-7------5-------------------------------------------------|
A|-----------7-0------77-5----2----------------------------------------------|
E|---------------------------------------------------------------------------|

(2:48-3:00)
G|-8-------------------------------------------------------------------------|
D|---9--7-0--5---------------------------5-----------------------------------|
A|--------------7-07-07-07-07-07-----5-----2---------------------------------|
E|---------------------------------------------------------------------------|

G|---------------------------------------------------------------------------|
D|------------------------0202-----------------------------------------------|
A|---------------------------------------------------------------------------|
E|-1-1-1--0-3--1-1-1-0-------------------------------------------------------|
            
Submit corrections

comments powered by Disqus
↑ Back to top | Warpaint Bass for Bees. Lyrics for acoustic guitar and electric guitar. 1 Tablatures and chords are parodies/interpretations of the original songs. You may use it for private study, scholarship, research or language learning purposes only