» » »

Elephants Tabs (ver.1)

Artists:  A B C D E F G H I J K L M N O P Q R S T U V W X Y Z # 

Elephants Tabs (ver.1)

Warpaint
Rating:
4/5 (5 votes)

Hard to play? Try these video lessons and learn fast.
                The original tab is made by Tara and can be found here:

fuseaction=viewImage&friendID=361498543&albumID=1064192&imageID=13469178

intro/ main riff
e-------11-------11--------16-------12-------12----11------------|
B----12-------12------14---------14-------14-------------12------|
G-13-------13-------13--13----13-------13-------13----13---------|
D----------------------------------------------------------------|
A----------------------------------------------------------------|
E----------------------------------------------------------------|

at around 1:27 you can hear a slight difference

e-------11-------11--------16-------12-------12--11--------------|
B----12-------12------14---------14-------14---------------------|
G-13-------13-------13--13----13-------13------------------------|
D----------------------------------------------------------------|
A----------------------------------------------------------------|
E----------------------------------------------------------------|

at 1:42,just strum between them

e-11---------9----------------------------------------------------|
B-12---------10---------------------------------------------------|
G-13---and---11---------------------------------------------------|
D-X---------------------------------------------------------------|
A-X---------------------------------------------------------------|
E-X---------------------------------------------------------------|

at 3:40

e-12-11-------12/9--12/14-----------------------------------------|
B-------10-11-------------12-9-9-12-14---12-9-9-12-17-17----------|
G-----------------------------------------------------------------|
D-----------------------------------------------------------------|
A-----------------------------------------------------------------|
E-----------------------------------------------------------------|

e-12-11-------12/9--12/14-----------------------------------------|
B-------10-11-------------12-9-9-12-14---12-9-9-5-----------------|
G-----------------------------------------------------------------|
D-----------------------------------------------------------------|
A-----------------------------------------------------------------|
E-----------------------------------------------------------------|

This is the part emily plays troughout the song:

e-----------------------------------------------------------------|
B-----------------------------------------------------------------|
G-----------------------------------------------------------------|
D---6------------6------------6------------6-------6-6------------|
A-------5------------5-------------5-----------5------------------|
E-4---7---5-5--4---7---5-5--4---7----5-5--4--7---5----------------|

e----------------------------------------------------------------|
B----------------------------------------------------------------|
G----------------------------------------------------------------|
D---6------------6---------------------------------6-6-----------|
A-------5------------5--------6---5--------6-6-5-----------------|
E-4---7---5-5--4---7---5-5--4---4---5-5--4-------5---------------|

Have fun :D
            
Hard to play? Try these video lessons and learn fast. | Correct




comments powered by Disqus
↑ Back to top | Tablatures and chords are parodies/interpretations of the original songs. You may use it for private study, scholarship, research or language learning purposes only