» » »

Warpaint, Elephants Bass tabs (ver.3)

Artists:  A B C D E F G H I J K L M N O P Q R S T U V W X Y Z # 

Elephants Bass tabs (ver.3)

Warpaint Tabs
Rating:
0/5 (0 votes)
Elephants lessons Tabs too difficult? Try these video lessons and learn fast
                verse:

G--------------------------------------|
D---6----------------6-----------------|
A--------4-0-0-0-0-------4-0-0-0-0-----|
E-4---4------------4---4---------------|

bridge:

G-----6------6-------6-------6---------|
D--------4---------------4-------------|
A---4--4---4---4-5-4---4---4---4-5-4---|
E--------------------------------------|

End :

G-----------------------------------------------------------------|
D--------------4---------------4----------------------------------|
A--0-5-4-4-4-4-----0-5-4-4-4-4------0-5-4-4-4-4-0---0-5-4-4-4-4-0-|
E-----------------------------------------------------------------|

G--------------------6-------------------6------------------------|
D----------------4-------------------4----------------------------|
A--0-5-4-4-4-4-4---4---0-5-4-4-4-4-4---4---0-5-4------------------|
E-----------------------------------------------------------------|
            
Submit corrections

comments powered by Disqus
↑ Back to top | Warpaint Bass for Elephants. Lyrics for acoustic guitar and electric guitar. Tablatures and chords are parodies/interpretations of the original songs. You may use it for private study, scholarship, research or language learning purposes only