» » »

Warpaint, Billie Holiday Tabs (ver.1)

Artists:  A B C D E F G H I J K L M N O P Q R S T U V W X Y Z # 

Billie Holiday Tabs (ver.1)

Warpaint Tabs
Rating:
4/5 (3 votes)
Billie Holiday lessons Tabs too difficult? Try these video lessons and learn fast
                ---------------------------------------------------------------------------
---------------------------------------------------------------------------

Tuning: Standard


The three main chords for the song are Am, G, Dm



       Am                   G                  Dm
e|----------------------------------------------------1----------0--------|
B|----------1----------1---------0---------0------3---------3-------------|
G|------2---------2----------0---------0------------2----------2----------|
D|--------2----------2---------0---------0-----0----------0---------------|
A|----0---------0---------------------------------------------------------|
E|-------------------------3---------3------------------------------------|

      Am
e|-------------------------|----------------------------------------------|
B|----------1----------1---|----------------------------------------------|
G|------2---------2--------|--------REPEAT--------------------------------|
D|--------2----------2-----|----------------------------------------------|
A|----0---------0----------|----------------------------------------------|
E|-------------------------|----------------------------------------------|

The ending of the song is slightly different;

      Am                     C
e|-------------------------|------------------------------------------------|
B|----------1-----------1--|--------1-----------1-----------4--------4------|
G|-----2-----------2-------|----0-----------0------------0--------0---------|
D|--------2-----------2----|-------2-----------2-----------5--------5-------|
A|---0-----------0---------|--3-----------3------------6---------6----------|
E|-------------------------|------------------------------------------------|

The last chord is simply the C position, moved up to the fourth fret.
The whole pattern is repeated twice, followed by C, C' repeated twice;
Am, C, C' (X2)
C, C' (x2)
Ending on Am

LYRICS
B.I.L.L.I.E.H.O.L.I.D.A.Y.
B.I.L.L.I.E.H.O.L.I.D.A.Y.
B.I.L.L.I.E.H.O.L.I.D.A.Y.
B.I.L.L.I.E.H.O.L.I.D.A.Y.

As i walk this line, i am bound by the other side
and it's for my heart that i'll live
cause you'll never die.
Well if you want to know me, i'm a war. (B.I.L.L.I.E.H.O.L.I.D.A.Y.)
Come paint. (B.I.L.L.I.E.H.O.L.I.D.A.Y.)

Nothing you can say can tear me away from my guy.
Nothing you can do cause i'm stuck like glue to my guy.
I'm sticking to my guy like a stamp to a letter,
like birds of a feather, we stick together.
I'm telling you from the start, i won't be torn apart from my guy.

Nothing you can buy could make me tell a lie to my guy.
Nothing you could do could make me untrue to my guy.
I gave my guy my word of honour to be faithful and i'm gonna.
You best be believing, I won't be deceiving my guy.

As a matter of opinion I think he's tops.
My opinion is he's the cream of the crop.
As a matter of taste to be exact,
he's my dear as a matter of fact.
No muscle-bound man can tear me away from my guy.

B.I.L.L.I.E.H.O.L.I.D.A.Y.
B.I.L.L.I.E.H.O.L.I.D.A.Y.
B.I.L.L.I.E.H.O.L.I.D.A.Y.(if she wants to go, if he wants to go)
B.I.L.L.I.E.H.O.L.I.D.A.Y.(if he wants to go, if she wants to go)
B.I.L.L.I.E.H.O.L.I.D.A.Y.(if she wants to go, if she wants to go)
B.I.L.L.I.E.H.O.L.I.D.A.Y.(if she wants to go, if she wants to go)
B.I.L.L.I.E.H.O.L.I.D.A.Y.

Birds of a feather, we are birds of a feather.
            
Submit corrections

comments powered by Disqus
↑ Back to top | Warpaint Tabs for Billie Holiday. Lyrics for acoustic guitar and electric guitar. Tablatures and chords are parodies/interpretations of the original songs. You may use it for private study, scholarship, research or language learning purposes only