» » »

Especially In Michigan Bass tabs (ver.3)

Artists:  A B C D E F G H I J K L M N O P Q R S T U V W X Y Z # 

Especially In Michigan Bass tabs (ver.3)

Red Hot Chili Peppers
Rating:
0/5 (0 votes)

Hard to play? Try these video lessons and learn fast.
                4 STRING BASS, STANDARD TUNING  |
---------------------------------
INTRODUCTION (0:00)

|-9h11-11-11-11--11-11-11-11-11|-9h11-11-11-11-11-11--------|
|------------------------------|---------------------9h11-9-|
|------------------------------|----------------------------|
|------------------------------|----------------------------|

|-9h11-11-11-11--11-11-11-11-11|-9h11-11-11-11-11-11-11-11-11|
|------------------------------|-----------------------------|
|------------------------------|-----------------------------|
|------------------------------|-----------------------------|

VERSE ONE (0:09)

|--------------------------------------|
|-4-444-44----------2-222-22-----------|
|----------4-444-44----------2-222-22--| repeat until 0:56
|--------------------------------------|

    (0:56)
|-----------------|----------------|---------------|---------------|
|-----------------|----------------|4-4-4-4-4-4(7)-|---------------|
|-----------------|7-7-7-7-7-7-7-7-|---------------|-5-5-5-5-5-5-5-|
|-5-5-5-5-5-5-5-5-|----------------|---------------|---------------|

|-----------------|----------------|---------------|----------------|
|-----------------|----------------|4-4-4-4-4-4(7)-|----------------|
|-----------------|7-7-7-7-7-7-7-7-|---------------|-5-5-5-5-5-5-5-5|
|-5-5-5-5-5-5-5-5-|----------------|---------------|----------------|

    (1:18)
|--------------------------------------|
|-4-444-44----------2-222-22-----------|
|----------4-444-44----------2-222-22--| repeat until 1:45
|--------------------------------------|

 Distortion On
|-----------------|----------------|---------------|---------------|
|-----------------|----------------|4-4-4-4-4-4(7)-|---------------|
|-----------------|7-7-7-7-7-7-7-7-|---------------|-5-5-5-5-5-5-5-|
|-5-5-5-5-5-5-5-5-|----------------|---------------|---------------|

|-----------------|----------------|---------------|----------------|
|-----------------|----------------|4-4-4-4-4-4(7)-|----------------|
|-----------------|7-7-7-7-7-7-7-7-|---------------|-5-5-5-5-5-5-5-5|
|-5-5-5-5-5-5-5-5-|----------------|---------------|----------------|

|-----------------|----------------|---------------|---------------|
|-----------------|----------------|4-4-4-4-4-4(7)-|---------------|
|-----------------|7-7-7-7-7-7-7-7-|---------------|-5-5-5-5-5-5-5-|
|-5-5-5-5-5-5-5-5-|----------------|---------------|---------------|

|-----------------|----------------|---------------|----------------|
|-----------------|----------------|4-4-4-4-4-4(7)-|----------------|
|-----------------|7-7-7-7-7-7-7-7-|---------------|-5-5-5-5-5-5-5-5|
|-5-5-5-5-5-5-5-5-|----------------|---------------|----------------|


GUITAR SOLO (2:23)

|------------------|------------------|---------------------------|
|------------------|------------------|---------------------------|
|------------------|------------------|---------------------------|
|-2-2-2/5-5/9-9-12-|-2-2-2/5-5/9-9-12-|-14-14/10-10-10/12-12/9-9--|

|---------------------------|
|---------------------------|
|---------------------------|
|-14-14/10-10-10/12-12/9-9--|

|-------------------------------------------------------------|
|-------------------------------------------------------------|
|-------------------------------------------------------------|
|2-222-222-222-222-222-222-222-222-222-222-222-222-222-222-222|

   (2:51)
DISTORTION OFF
|--------------------------------------|
|-4-444-44----------2-222-22-----------|
|----------4-444-44----------2-222-22--| repeat until 3:09
|--------------------------------------|

  ENDING (3:09)
 Distortion On
|-----------------|----------------|---------------|---------------|
|-----------------|----------------|4-4-4-4-4-4(7)-|---------------|
|-----------------|7-7-7-7-7-7-7-7-|---------------|-5-5-5-5-5-5-5-|
|-5-5-5-5-5-5-5-5-|----------------|---------------|---------------|

|-----------------|----------------|---------------|----------------|
|-----------------|----------------|4-4-4-4-4-4(7)-|----------------|
|-----------------|7-7-7-7-7-7-7-7-|---------------|-5-5-5-5-5-5-5-5|
|-5-5-5-5-5-5-5-5-|----------------|---------------|----------------|

|-----------------|----------------|---------------|---------------|
|-----------------|----------------|4-4-4-4-4-4(7)-|---------------|
|-----------------|7-7-7-7-7-7-7-7-|---------------|-5-5-5-5-5-5-5-|
|-5-5-5-5-5-5-5-5-|----------------|---------------|---------------|

|-----------------|----------------|---------------|----------------|
|-----------------|----------------|4-4-4-4-4-4(7)-|----------------|
|-----------------|7-7-7-7-7-7-7-7-|---------------|-5-5-5-5-5-5-5-5|
|-5-5-5-5-5-5-5-5-|----------------|---------------|----------------|
            
Hard to play? Try these video lessons and learn fast. | Correct




comments powered by Disqus
↑ Back to top | Tablatures and chords are parodies/interpretations of the original songs. You may use it for private study, scholarship, research or language learning purposes only