» » »

Red Hot Chili Peppers, Dosed Tabs (ver.1)

Artists:  A B C D E F G H I J K L M N O P Q R S T U V W X Y Z # 

Dosed Tabs (ver.1)

Red Hot Chili Peppers Tabs
 Rating:
4/5 (4 votes)
Dosed lessons Tabs too difficult? Try these video lessons and learn fast
1
                PROPS GO TO: Pierred

Tuning: Standard (E A D G B E)

This is the first tab i've done so excuse me if you don't unterstand.
All chords will be shown at the bottom of the page.
Key:
? - I think
^ - bend up
~ - bend up then down

Guitar 1  
C                                           D                 Em  

Guitar 2 (Riff A)

E|-12--------12--------12-------12-------12-------10-------10-----7-----7||
B|--------12--------12-------12-------12-------10-------10------8-----8--||
G|-----12-------12--------12-------12-------11-------11-------9-----9----||
D|-----------------------------------------------------------------------||
A|-----------------------------------------------------------------------||
E|-----------------------------------------------------------------------||

Guitar 3 (Riff B)


E|--------------------------------------------------------||
B|--------------------------------------------------------||
G|----------------------4------4------7------4------------||
D|--------------------------------------------------------||
A|--------------------------------------------------------||
E|--------------------------------------------------------||

Guitar 4 (Riff C)



E|--------------------------------------------------------||
B|--------------------------------------------------------||
G|----------------------0---------------------------------||
D|---------------------------4---2---0------2-------------||
A|--------------------------------------------------------||
E|--------------------------------------------------------||

Guitar 5 (Riff D)

E|--------------------------------------------------------||
B|------------5----------5----------7----------8----------||
G|--------------------------------------------------------||
D|---------5----------5----------7---------9--------------||
A|----3-----------3----------5---------7------------------||
E|--------------------------------------------------------||

Verse 1 - All riffs played along with...

( I got Dosed by you, Closer than most to you,
E|------10------------------------10----------------------||
B|--------------------------------------------------------||
G|------------11--12--------------------11--12------------||
D|--------------------------------------------------------||
A|--------------------------------------------------------||
E|--------------------------------------------------------||

  What am I s'posed to do,  Take it away I never had it anyway,
E|----------10----------------------------19--17--15--------15------||
B|----------------------------------------------------19------------||
G|------------------11--12------------------------------------------||
D|------------------------------------------------------------------||
A|------------------------------------------------------------------||
E|------------------------------------------------------------------||

  Take it away and everything will be ok.)
E|---------------15---14---12----------12---------------------------||
B|------------------------------15----------------------------------||
G|------------------------------------------------4---4----7---4---4||
D|------------------------------------------------------------------||
A|------------------------------------------------------------------||
E|------------------------------------------------------------------||

Verse 2 - All riffs and...
 ( In you a star is born, You cut a perfect form, Someone forever warm,
E|-----------10--------------------10-----------------------10----------||
B|----------------------------------------------------------------------||
G|----------------11--12----------------11--12------------------11--12--||
D|----------------------------------------------------------------------||
A|----------------------------------------------------------------------||
E|----------------------------------------------------------------------||

  Lay_ on__ lay_ on__ lay_ on__ lay_ on__, Lay_ on__ lay_ on__ lay_ on__ Lay_ on__
E|---------------19---17---15----------15-----------------------15--14--12--------12||
B|------------------------------19------------------------------------------15------||
G|----------------------------------------------------------------------------------||
D|----------------------------------------------------------------------------------||
A|----------------------------------------------------------------------------------||
E|----------------------------------------------------------------------------------||

Chorus 1 - I don't know the tab but I know the chords.

 G            D                  Em        C
(Way upon the mountain where she died,

G          D               Em         C
All I ever wanted was your life,

G               D              Em       C
Deep inside the canyon I can't hide,

G          D               Em         C
All I ever wanted was your life.)

Verse 3 - Same as verse 2 but the vocals are something like this:

( Show love with no remorse,
Climd onto your sea horse,
This ride is right on course,
This is the way I wanted to be with you,
This is the way I knew that it would be with you,
Lay on, lay on, lay on, lay on,
Lay on, lay on, lay on, lay on.)

Chorus 2 - As chorus 1 but on the last line it goes like this:

 G          D               Asus7?      C9?
(All I ever wanted was your life.)

Verse 4 - As Verse 2 and 3 but with the vocals of verse 1.

Chrous 3 - As chorus 2

Solo - (Outro)


E|--12---10---12---10---12---10---12---10---12---10--------------------------||
B|----------------------------------------------------12--12---12--12--------||
G|---------------------------------------------------------------------------|| Repeat
D|---------------------------------------------------------------------------||
A|---------------------------------------------------------------------------||
E|---------------------------------------------------------------------------||


E|---------------------------------------------------------------------------||
B|--13--13--13--13-----13--12------------------------------------------------||
G|------------------------------12--12--12--12--11--12--12-------------------||
D|---------------------------------------------------------------------------||
A|---------------------------------------------------------------------------||
E|---------------------------------------------------------------------------||

Play first part of the solo twice again, then play:


E|--------------------------------------------------------------------------------------||
B|--15----15--15--15--15--15---12^---12^--12^--12^--12^--12^--12-----12-------12~---15--||
G|--------------------------------------------------------------------------------------||
D|--------------------------------------------------------------------------------------||
A|--------------------------------------------------------------------------------------||
E|--------------------------------------------------------------------------------------||
            
Chords:

          C                    D
E|--------0-----------|---------2---------||
B|--------1-----------|---------3---------||
G|--------0-----------|---------2---------||
D|--------2-----------|---------0---------||
A|--------3-----------|-------------------||
E|--------------------|-------------------||

        Asus7?                C9
E|--------0----------|---------3---------||
B|--------0----------|---------3---------||
G|--------0----------|---------0---------||
D|--------2----------|---------2---------||
A|--------0----------|---------3---------||
E|-------------------|-------------------||

          Em                   G
E|--------0----------|---------3---------||
B|--------0----------|---------3---------||
G|--------0----------|---------0---------||
D|--------2----------|---------0---------||
A|--------2----------|---------2---------||
E|--------0----------|---------3---------||

The Red Chilis ...
            
Submit corrections

comments powered by Disqus
↑ Back to top | Red Hot Chili Peppers Tabs for Dosed. Lyrics for acoustic guitar and electric guitar. 1 Tablatures and chords are parodies/interpretations of the original songs. You may use it for private study, scholarship, research or language learning purposes only