» » »

Red Hot Chili Peppers, Especially In Michigan Tabs (ver.2)

Artists:  A B C D E F G H I J K L M N O P Q R S T U V W X Y Z # 

Especially In Michigan Tabs (ver.2)

Red Hot Chili Peppers Tabs
Rating:
0/5 (0 votes)
Especially In Michigan lessons Tabs too difficult? Try these video lessons and learn fast
                -------------------------------------------------------------------------------
                     Especially In Michigan - Red Hot Chili Peppers
-------------------------------------------------------------------------------

Tuning:eBGADAE

Esta es una buenisima cancion de su nuevo album Stadium Arcadium
John Frusciante como siempre un MAESTRO en esta cancion esta acompañado
por Omar Rodriguez.
Jhon Frusciante otra vez mis respetos!

Dedicada para todos mis amigos y para mi Ecuador del alma carajo!


e|-----------------------------------------|
B|-----------------------------------------|
G|-----------------------------------------|
D|--9h11-11-11-11-11-11-11-11-11-----------|
A|-----------------------------------------|
E|-----------------------------------------|

e|-----------------------------------------|
B|-----------------------------------------|
G|-------------------------9h11-9----------|
D|--9h11-11-11-11-11-11-11-----------------|
A|-----------------------------------------|
E|-----------------------------------------|

e|-----------------------------------------|
B|-----------------------------------------|
G|-----------------------------------------|
D|--9h11-11-11-11-11-11-11-11-11-----------|
A|-----------------------------------------|
E|-----------------------------------------|

e|-----------------------------------------|
B|---------------------------7-7h9p7--7----|
G|-------------------------9--------9---9--|
D|--9h11-11-11-11-11-11-11-----------------|
A|-----------------------------------------|
E|-----------------------------------------|

0:10 (distorsion)                            0:29

e|--------------------------                 -----14----14--14--14----14----14-------|
B|----14-14----14-14----14--                 ---14----14------------14----14---------|
G|-11-------11-------11----- <--muchas veces -11----11----11--11--11----11-----------|  (x2)
D|--------------------------                 ----------------------------------------|
A|--------------------------   despues-->    ----------------------------------------|
E|--------------------------                 ----------------------------------------|

(Clean)
0:56 cry me a future...

e|--------------------------------------------------------------------|
B|--14----14----14---12----12----12--14----14----14--15----15----15---|
G|----14----14-----------13----13--------14----14--------14----14-----|
D|------14----14--14---14----14--------16----16--------16----16-------|
A|--------------------------------------------------------------------|
E|--------------------------------------------------------------------|

1:06 lions and tigers...

e|---------------------------------------------------14----14----14----14----14-----|
B|--14----14----14---12----12----12--14----14----14------15----15----15----15----15-|
G|----14----14-----------13----13--------14----14------14----14----14----14----14---|
D|------14----14--14---14----14--------16----16-------------------------------------|
A|----------------------------------------------------------------------------------|
E|----------------------------------------------------------------------------------|

1:18

(aqui van voces de anthony distorcionadas y 2 guitarras, una puede ser Omar Rodriguez)

Gitarra 1

e|--------------------------|
B|--------------------14~---|
G|--------------------------|
D|-11~~~-11~~~-11~-~--------|
A|--------------------------|
E|--------------------------|

Gitarra 2

e|--------------------------|
B|----14-14----14-14----14--|
G|-11-------11-------11-----|
D|--------------------------|
A|--------------------------|
E|--------------------------|

1:33

Gitarra 1

e|----14~--0-17-0-17-0-17-0-17-0-17--------|
B|-14~-------------------------------------|
G|-----------------------------------------|
D|-----------------------------------------|
A|-----------------------------------------|
E|-----------------------------------------|

Gitarra 2

e|--------------------------|
B|----14-14----14-14----14--|
G|-11-------11-------11-----|
D|--------------------------|
A|--------------------------|
E|--------------------------|


1:45 (esta parte la tocan con una gitarra afinada diferente, pero yo la toco en una en E)

e|---------------------------14--|
B|---------------------------15--|
G|---------------------------14--|
D|--/7--/2--/4-/0---/7-/2-/4-----|
A|--/7--/2--/4-/0---/7-/2-/4-----|
E|--/5--/0--/2--x---/5-/0-/2-----|

2:05

Gitarra 1

e|---------------------------------------------------------------------------|
B|---------------------------------------------------------------------------|
G|---------------------------------------------------------------------------|
D|--7--------------2-------------4----------------0--------------------------|
A|--7--------------2-------------4----------------0--------------------------|
E|--5--------------0-------------2----------------x--------------------------|

Guitarra 2

e|---------------------------------------------------------------------------|
B|-/14-14-14-14-14/9-9-9-9-9-9-9/10-10-10-10-10-10/7-7-7-7-7-7-7-7-----------|
G|---------------------------------------------------------------------------|
D|---------------------------------------------------------------------------|
A|---------------------------------------------------------------------------|
E|---------------------------------------------------------------------------|

Guit 1

e|---------------------------------------------------------------------------|
B|---------------------------------------------------------------------------|
G|---------------------------------------------------------------------------|
D|--7--------------2-------------4----------------0--------------------------|
A|--7--------------2-------------4----------------0--------------------------|
E|--5--------------0-------------2----------------x--------------------------|

Guit 2

e|------------------------------------------------14-------------------------|
B|-/14-14-14-14-14/9-9-9-9-9-9-9/10-10-10-10-10---15-------------------------|
G|------------------------------------------------14-------------------------|
D|---------------------------------------------------------------------------|
A|---------------------------------------------------------------------------|
E|---------------------------------------------------------------------------|


2:23
(la guitarra de fondo para el solo)
e|---------------------------------------------------------------------------|
B|---------------------------------------------------------------------------|
G|---------------------------------------------------------------------------|(x2)
D|-4--7--11--14--------------------------------------------------------------|
A|-x--x--x---x---------------------------------------------------------------|
E|-2--5--9---12--------------------------------------------------------------|

e|---------------------------------------------------------------------------|
B|---------------------------------------------------------------------------|
G|---------------------------------------------------------------------------|(x2)
D|-16--12--14--9-------------------------------------------------------------|
A|-x---x---x---x-------------------------------------------------------------|
E|-14--10--12--7-------------------------------------------------------------|

(solo)
e|----------------------------------------------12-14-12---------------------|
B|---------------------------------12b13--12---------------------------------|
G|-11h12p11-12b-(11)--11h13p11-13b-----------13------------------------------|
D|---------------------------------------------------------------------------|
A|---------------------------------------------------------------------------|
E|---------------------------------------------------------------------------|

e|---------------------------------------------------------------------------|
B|14-13b13b13b13b13b13b13b-------12b-----------------------------------------|
G|-------------------------11-13-----13-11-13b-------------------------------|
D|---------------------------------------------------------------------------|
A|---------------------------------------------------------------------------|
E|---------------------------------------------------------------------------|

e|------12--12--12--12/14--14------------------------------------------------|
B|--------12--12--12---------------------------------------------------------|
G|13-13b---------------------------------------------------------------------|
D|---------------------------------------------------------------------------|
A|---------------------------------------------------------------------------|
E|---------------------------------------------------------------------------|


e|-14/16-16-16p14-16-16-16p14-16-16h17-16-14-12-14-12------------------------|
B|----------------------------------------------------14~ 12~ 10~------------|
G|---------------------------------------------------------------------------|
D|---------------------------------------------------------------------------|
A|---------------------------------------------------------------------------|
E|---------------------------------------------------------------------------|

2:41
e|---14--14-17-16-14-12--12-17-16---14-14------------------------------------|
B|-14--14--------------14---------14-----------------------------------------|
G|---------------------------------------------------------------------------|
D|---------------------------------------------------------------------------|(x2)
A|---------------------------------------------------------------------------|
E|---------------------------------------------------------------------------|


e|----14~--0-17-0-17-0-17-0-17-0-17--------|
B|-14~-------------------------------------|
G|-----------------------------------------|
D|-----------------------------------------|
A|-----------------------------------------|
E|-----------------------------------------|

3:09 Otra vez el coro
e|---------------------------14--|
B|---------------------------15--|
G|---------------------------14--|
D|--/7--/2--/4-/0---/7-/2-/4-----|
A|--/7--/2--/4-/0---/7-/2-/4-----|
E|--/5--/0--/2--x---/5-/0-/2-----|

3:28
e|-14-12----14b-12-----12-16-17-16-14----------------------------------------|
B|-------14-------14-12---------------12--------12-12b-----------------------|
G|----------------------------------------11-14--------14-12~-12-12-12-------|
D|---------------------------------------------------------------------------|
A|---------------------------------------------------------------------------|
E|---------------------------------------------------------------------------|

e|-------------------------14b-12----14b-12-----12-16-17-16-14---------------|
B|-------12-15b------------------14-----------12---------------12------------|
G|-11-14--------14-11-11------------------------------------------14b~-------|
D|---------------------------------------------------------------------------|
A|---------------------------------------------------------------------------|
E|---------------------------------------------------------------------------|

e|---------------------------------------------------------------------------|
B|---------------------------------------------------------------------------|
G|14b~-13-11-11~~~~~~--------------------------------------------------------|
D|---------------------------------------------------------------------------|
A|---------------------------------------------------------------------------|
E|---------------------------------------------------------------------------|

Para correcciones porfa me escriben a mi mail
            
Submit corrections

comments powered by Disqus
↑ Back to top | Red Hot Chili Peppers Tabs for Especially In Michigan. Lyrics for acoustic guitar and electric guitar. Tablatures and chords are parodies/interpretations of the original songs. You may use it for private study, scholarship, research or language learning purposes only