>
 >
Especially In Michigan

Especially In Michigan Guitar Tabs

Red Hot Chili Peppers - Especially In Michigan chords, tabs, tablatures, lyrics

Guitar lessons | Add/correct | Request | Top 50 tabs Artists:  A B C D E F G H I J K L M N O P Q R S T U V W X Y Z 0-9

Especially In Michigan Guitar Tabs – Red Hot Chili Peppers

CD, Sheet music, Poster

Do you like Especially In Michigan? Share with your friends now
Bass TabsBass Tabs v2Bass Tabs v3Bass Tabs v4ChordsChords v2TabsTabs v2Tabs v3Tabs v4Tabs v5Ukulele
OK, for starters, this is a .txt version of the Guitar Pro version done by *wilson89*, 
was great IMO. It's just some don't have GP and some (like me) don't feel like playing 
to GP. So, here ya'll go

Intro

Frusciante
E|------------------------------------|
B|------------------------------------|
G|------------------------------------|
D|--9h-11--11-11--11-11--11-11--11----|
A|------------------------------------|
E|------------------------------------|

E|-------------------------------------------|
B|-------------------------------------------|
G|------------------------------9h--11p-9----|
D|--9h-11--11-11--11-11--11-11---------------|
A|-------------------------------------------|
E|-------------------------------------------|

E|------------------------------------|
B|------------------------------------|
G|------------------------------------|
D|--9h-11--11-11--11-11--11-11--11----|
A|------------------------------------|
E|------------------------------------|

E|------------------------------------|
B|------------------7-7h-9p-7---7-----|
G|----------------9-----------9---9---|
D|--9h-11--11-11----------------------|
A|------------------------------------|
E|------------------------------------|

-

Verse 1

Frusciante
E|----------------------------------|----------------------------------|
B|------14--14------14--14------14--|------14--14------14--14------14--|
G|--11----------11----------11------|--11----------11----------11------|
D|----------------------------------|----------------------------------|    x8
A|----------------------------------|----------------------------------|
E|----------------------------------|----------------------------------|

E|----------14----------14------14--|
B|------14----------14--------------|
G|--11----------11----------11------|
D|----------------------------------| x4
A|----------------------------------|
E|----------------------------------|

E|----------------------------------|----------------------------------|
B|------14--14------14--14------14--|------14--14------14--14------14--|
G|--11----------11----------11------|--11----------11----------11------|
D|----------------------------------|----------------------------------|    x6
A|----------------------------------|----------------------------------|
E|----------------------------------|----------------------------------|

E|----------14----------14------14--|
B|------14----------14--------------|
G|--11----------11----------11------|
D|----------------------------------| x4
A|----------------------------------|
E|----------------------------------|

-

Chorus 1

Frusciante
E|----------------------------------|
B|--14----------14----------14------|
G|------14----------14--------------|
D|----------14----------14------14--|
A|----------------------------------|
E|----------------------------------|

E|--------------------------------|--------------------------------|
B|--12----------12----------12----|--14----------14----------14----|
G|----------13----------13--------|----------14----------14--------|
D|------14----------14------------|------16----------16------------|
A|--------------------------------|--------------------------------|
E|--------------------------------|--------------------------------|

E|--------------------------------|----------------------------------|
B|--15----------15----------15----|--14----------14----------14------|
G|----------14----------14--------|------14----------14--------------|
D|------16----------16------------|----------14----------14------14--|
A|--------------------------------|----------------------------------|
E|--------------------------------|----------------------------------|

E|--------------------------------|--------------------------------|
B|--12----------12----------12----|--14----------14----------14----|
G|----------13----------13--------|----------14----------14--------|
D|------14----------14------------|------16----------16------------|
A|--------------------------------|--------------------------------|
E|--------------------------------|--------------------------------|

E|--14----------14----------14-----|----------14----------14----------|
B|----------15----------15---------|------15----------15----------15--|
G|------14----------14-------------|--14----------14----------14------|
D|---------------------------------|----------------------------------|
A|---------------------------------|----------------------------------|
E|---------------------------------|----------------------------------|

-

verse 2

Frusciante
E|----------------------------------|----------------------------------|
B|------14--14------14--14------14--|------14--14------14--14------14--|
G|--11----------11----------11------|--11----------11----------11------|
D|----------------------------------|----------------------------------|    x8
A|----------------------------------|----------------------------------|
E|----------------------------------|----------------------------------|

E|----------14----------14------14--|
B|------14----------14--------------|
G|--11----------11----------11------|
D|----------------------------------| x4
A|----------------------------------|
E|----------------------------------|

-

Chorus 2

Frusciante (x2)
E|---------------------------|
B|---------------------------|
G|---------------------------|
D|--7-----7--7-----7--7--7---|
A|--7-----7--7-----7--7--7---|
E|--5-----5--5-----5--5--5---|

E|---------------------------|--------------------------|
B|---------------------------|--------------------------|
G|---------------------------|--------------------------|
D|--2-----2--2-----2--2--2---|--4----4--4-----4--4--4---|
A|--2-----2--2-----2--2--2---|--4----4--4-----4--4--4---|
E|--0-----0--0-----0--0--0---|--2----2--2-----2--2--2---|

E|---------------------------|
B|---------------------------|
G|---------------------------|
D|--0-----0--0-----0--0--0---|
A|--0-----0--0-----0--0--0---|
E|--x-----x--x-----x--x--x---|

E|---------------------------|
B|---------------------------|
G|---------------------------|
D|--7-----7--7-----7--7--7---|
A|--7-----7--7-----7--7--7---|
E|--5-----5--5-----5--5--5---|

E|---------------------------|
B|---------------------------|
G|---------------------------|
D|--2-----2--2-----2--2--2---|
A|--2-----2--2-----2--2--2---|
E|--0-----0--0-----0--0--0---|

E|---------------------------|--14----14--14-----14--14--14\--|
B|---------------------------|--15----15--15-----15--15--15\--|
G|---------------------------|--14----14--14-----14--14--14\--|
D|--4-----4--4-----4--4--4/--|--------------------------------|
A|--4-----4--4-----4--4--4/--|--------------------------------|
E|--2-----2--2-----2--2--2/--|--------------------------------|


Rodriguez (x1, starts after guitar 1 has played through once)
E|---------------------------------|
B|--/14----14--14-----14--14--14---|
G|---------------------------------|
D|---------------------------------|
A|---------------------------------|
E|---------------------------------|


E|--------------------------|--------------------------------|
B|--9----9--9-----9--9--9---|--10----10--10-----10--10--10---|
G|--------------------------|--------------------------------|
D|--------------------------|--------------------------------|
A|--------------------------|--------------------------------|
E|--------------------------|--------------------------------|


E|--------------------------|--------------------------------|
B|--7----7--7-----7--7--7---|--14----14--14-----14--14--14---|
G|--------------------------|--------------------------------|
D|--------------------------|--------------------------------|
A|--------------------------|--------------------------------|
E|--------------------------|--------------------------------|


E|--------------------------|--------------------------------|
B|--9----9--9-----9--9--9---|--10----10--10-----10--10--10---|
G|--------------------------|--------------------------------|
D|--------------------------|--------------------------------|
A|--------------------------|--------------------------------|
E|--------------------------|--------------------------------|

E|-------------------------|
B|--7----7--7-----7--7--7--|
G|-------------------------|
D|-------------------------|
A|-------------------------|
E|-------------------------|

-

Solo

Frusciante
E|----------------------------|------------------------------------|
B|----------------------------|------------------------------------|
G|----------------------------|------------------------------------|
D|--4---4-4-4----7---7-7-7----|--11---11-11-11----14---14-14-14----|
A|--x---x-x-x----x---x-x-x----|---x----x--x--x-----x----x--x--x----|
E|--2---2-2-2----5---5-5-5----|---9----9--9--9----12---12-12-12----|

E|----------------------------|------------------------------------|
B|----------------------------|------------------------------------|
G|----------------------------|------------------------------------|
D|--4---4-4-4----7---7-7-7----|--11---11-11-11----14---14-14-14----|
A|--x---x-x-x----x---x-x-x----|---x----x--x--x-----x----x--x--x----|
E|--2---2-2-2----5---5-5-5----|---9----9--9--9----12---12-12-12----|

E|------------------------------------|---------------------------------|
B|------------------------------------|---------------------------------|
G|------------------------------------|---------------------------------|
D|--16---16-16-16----12---12-12-12----|--14---14-14-14-----9---9-9-9----|
A|---x----x--x--x-----x----x--x--x----|---x----x--x--x-----x---x-x-x----|
E|--14---14-14-14----10---10-10-10----|--12---12-12-12----12---7-7-7----|

E|------------------------------------|---------------------------------|
B|------------------------------------|---------------------------------|
G|------------------------------------|---------------------------------|
D|--16---16-16-16----12---12-12-12----|--14---14-14-14-----9---9-9-9\---|
A|---x----x--x--x-----x----x--x--x----|---x----x--x--x-----x---x-x-x\---|
E|--14---14-14-14----10---10-10-10----|--12---12-12-12----12---7-7-7\---|

E|------14------14--17--16--14--12--|------12--17--16------14--14----|
B|--14------14----------------------|--14--------------14------------|
G|----------------------------------|--------------------------------|
D|----------------------------------|--------------------------------|
A|----------------------------------|--------------------------------|
E|----------------------------------|--------------------------------|

E|------14------14--17--16--14--12--|------12--17--16------14--14----|
B|--14------14----------------------|--14--------------14------------|
G|----------------------------------|--------------------------------|
D|----------------------------------|--------------------------------|
A|----------------------------------|--------------------------------|
E|----------------------------------|--------------------------------|


Rodriguez
E|-----------------------------------|
B|-----------------------------------|
G|-----11-12-11-12b-----------(11)---|
D|-----------------------------------|
A|-----------------------------------|
E|-----------------------------------|

E|--------------------------------|------------------12--14--12------|
B|--------------------------------|--12b-----12------------------14--|
G|--11h-13p-11-13b----------------|--------------13------------------|
D|--------------------------------|----------------------------------|
A|--------------------------------|----------------------------------|
E|--------------------------------|----------------------------------|

E|-----------------------------------------|----------------------------------|
B|-----13--13b-13--13b-13--13b-13--13b-13--|----------12----------------------|
G|-----------------------------------------|--11--13----------13--11--13b-----|
D|-----------------------------------------|----------------------------------|
A|-----------------------------------------|----------------------------------|
E|-----------------------------------------|----------------------------------|

E|--------------12----12----12----12--14-14--|
B|-----------------12----12----12------------|
G|-------------------------------------------|
D|--13--13b----------------------------------|
A|-------------------------------------------|
E|-------------------------------------------|

E|--14---16--16p-14-16--------16--16p-14-16--|-----16--16h-17-16-----14--12--14--|
B|-------------------------------------------|-----------------------------------|
G|-------------------------------------------|-----------------------------------|
D|-------------------------------------------|-----------------------------------|
A|-------------------------------------------|-----------------------------------|
E|-------------------------------------------|-----------------------------------|

E|--------------------------|
B|--14~-------12~-------10~-|
G|--------------------------|
D|--------------------------|
A|--------------------------|
E|--------------------------|

-

Verse 3

Frusciante
E|----------------------------------|----------------------------------|
B|------14--14------14--14------14--|------14--14------14--14------14--|
G|--11----------11----------11------|--11----------11----------11------|
D|----------------------------------|----------------------------------|    x2
A|----------------------------------|----------------------------------|
E|----------------------------------|----------------------------------|

E|----------14----------14------14--|
B|------14----------14--------------|
G|--11----------11----------11------|
D|----------------------------------| x4
A|----------------------------------|
E|----------------------------------|

-

Frusciante (x2)
E|---------------------------|
B|---------------------------|
G|---------------------------|
D|--7-----7--7-----7--7--7---|
A|--7-----7--7-----7--7--7---|
E|--5-----5--5-----5--5--5---|

E|---------------------------|--------------------------|
B|---------------------------|--------------------------|
G|---------------------------|--------------------------|
D|--2-----2--2-----2--2--2---|--4----4--4-----4--4--4---|
A|--2-----2--2-----2--2--2---|--4----4--4-----4--4--4---|
E|--0-----0--0-----0--0--0---|--2----2--2-----2--2--2---|

E|---------------------------|
B|---------------------------|
G|---------------------------|
D|--0-----0--0-----0--0--0---|
A|--0-----0--0-----0--0--0---|
E|--x-----x--x-----x--x--x---|

E|---------------------------|
B|---------------------------|
G|---------------------------|
D|--7-----7--7-----7--7--7---|
A|--7-----7--7-----7--7--7---|
E|--5-----5--5-----5--5--5---|

E|---------------------------|
B|---------------------------|
G|---------------------------|
D|--2-----2--2-----2--2--2---|
A|--2-----2--2-----2--2--2---|
E|--0-----0--0-----0--0--0---|

E|---------------------------|--14----14--14-----14--14--14\--|
B|---------------------------|--15----15--15-----15--15--15\--|
G|---------------------------|--14----14--14-----14--14--14\--|
D|--4-----4--4-----4--4--4/--|--------------------------------|
A|--4-----4--4-----4--4--4/--|--------------------------------|
E|--2-----2--2-----2--2--2/--|--------------------------------|


Rodriguez (x1, starts after guitar 1 has played through once)
E|--14--12------14b-----12----------|
B|----------14--------------14--12--|
G|----------------------------------|
D|----------------------------------|
A|----------------------------------|
E|----------------------------------|

E|--12--16--17--16--14--------------|-----------------------------------|
B|----------------------12----------|--12--12b--------------------------|
G|--------------------------11--14--|--------------14--12--12~--12--12--|
D|----------------------------------|-----------------------------------|
A|----------------------------------|-----------------------------------|
E|----------------------------------|-----------------------------------|

E|----------------------------------|--14b-----12------14b-----12------|
B|----------14--15b-----------------|--------------14--------------12--|
G|--11--14--------------14--11--11--|----------------------------------|
D|----------------------------------|----------------------------------|
A|----------------------------------|----------------------------------|
E|----------------------------------|----------------------------------|

E|----------------------------------|
B|----------------------------------|
G|-----14b-----14b-----13--11--11~--|
D|----------------------------------|
A|----------------------------------|
E|----------------------------------|





Comments


Popular Red Hot Chili Peppers tabs & chords
Blues For Meister 4 Bass Tabs
Hollywood 1 Bass Tabs
Love Trilogy 1 Bass Tabs
Yertle The Turtle 2 Bass Tabs
Out Of Range Chords
F.U. 1 Tabs
Funky Monks 1 Tabs
Me & My Friends Comp Tabs
Nobody Weird Like Me Tabs
Under The Bridge By Mick Maggot Tabs


Song lyrics



↑ Back to top | Tablatures and chords are parodies/interpretations of the original songs. You may use it for private study, scholarship, research or language learning purposes only
© 2014 AZChords.com Contact us | Privacy policy | DMCA | Add/correct tabs | Request tabs | Top 50 tabs