» » »

Red Hot Chili Peppers, Venice Queen Tabs (ver.1)

Artists:  A B C D E F G H I J K L M N O P Q R S T U V W X Y Z # 

Venice Queen Tabs (ver.1)

Red Hot Chili Peppers Tabs
 Rating:
4/5 (4 votes)
Venice Queen lessons Tabs too difficult? Try these video lessons and learn fast
                In this song for the 2nd and 3rd parts there's a 2nd guitar appreegating the chords.
Have fun with this, it's a great song.

-----------------------------------|-----|---------|----0---------------------
------12-----12-----12-------------|-----|----3----|----3---------------------
----9----9------9-------9---9-12-11|-x3--|----4----|----0---------------------
--9--------9------9-------9--------|-----|----5----|----2---------------------
-----------------------------------|-----|----3----|----0---------------------
-----------------------------------|-----|---------|--------------------------
  Part 1   Em                              Cm9sus2    A7sus4                  

-----------0---|--0--|-----|----0----|---0------------------------------------
-----------0---|--1--|-----|----0----|---3------------------------------------
-----------0---|--0--|--x3-|----2----|---2------------------------------------
-----------2---|--2--|-----|----2----|---0------------------------------------
-----------2---|--3--|-----|----0----|----------------------------------------
-----------0---|-----|-----|---------|----------------------------------------
  Part 2   Em     C           Asus2     Dsus2                                 

-----------0---|---3---|----0-------------------------------------------------
-----------2---|---3---|----1-------------------------------------------------
-----------2---|---0---|----2-------------------------------------------------
-----------2---|---0---|----3-------------------------------------------------
-----------0---|---2---|----3-------------------------------------------------
---------------|---3---|----1-------------------------------------------------
  Part 3   A       G      Fmaj9
            
Submit corrections

comments powered by Disqus
↑ Back to top | Red Hot Chili Peppers Tabs for Venice Queen. Lyrics for acoustic guitar and electric guitar. Tablatures and chords are parodies/interpretations of the original songs. You may use it for private study, scholarship, research or language learning purposes only