» » »

Red Hot Chili Peppers, Especially In Michigan Tabs (ver.3)

Artists:  A B C D E F G H I J K L M N O P Q R S T U V W X Y Z # 

Especially In Michigan Tabs (ver.3)

Red Hot Chili Peppers Tabs
 Rating:
4/5 (4 votes)
Especially In Michigan lessons Tabs too difficult? Try these video lessons and learn fast
                -------------------------------------------------------------------------------
                             Especially In Michigan - Red Hot Chili Peppers
-------------------------------------------------------------------------------

Tuning:eBGADAE

Con mucho cariño para todos mis amigos!
Q viva Ecuador carajo!!!!

e|-----------------------------------------|
B|-----------------------------------------|
G|-----------------------------------------|
D|--9h11-11-11-11-11-11-11-11-11-----------|
A|-----------------------------------------|
E|-----------------------------------------|

e|-----------------------------------------|
B|-----------------------------------------|
G|-------------------------9h11-9----------|
D|--9h11-11-11-11-11-11-11-----------------|
A|-----------------------------------------|
E|-----------------------------------------|

e|-----------------------------------------|
B|-----------------------------------------|
G|-----------------------------------------|
D|--9h11-11-11-11-11-11-11-11-11-----------|
A|-----------------------------------------|
E|-----------------------------------------|

e|-----------------------------------------|
B|---------------------------7-7h9p7--7----|
G|-------------------------9--------9---9--|
D|--9h11-11-11-11-11-11-11-----------------|
A|-----------------------------------------|
E|-----------------------------------------|

0:10 (distorsion)                            0:29

e|--------------------------                 -----14----14--14--14----14----14----------|
B|----14-14----14-14----14--                 ---14----14------------14----14------------|
G|-11-------11-------11----- <--muchas veces -11----11----11--11--11----11--------------|
D|--------------------------                 -------------------------------------------|
A|--------------------------   despues-->    -------------------------------------------|
E|--------------------------                 -------------------------------------------|

(Clean)
0:56 cry me a future...

e|--------------------------------------------------------------------|
B|--14----14----14---12----12----12--14----14----14--15----15----15---|
G|----14----14-----------13----13--------14----14--------14----14-----|
D|------14----14--14---14----14--------16----16--------16----16-------|
A|--------------------------------------------------------------------|
E|--------------------------------------------------------------------|

1:06 lions and tigers...

e|---------------------------------------------------14----14----14----14----14-----|
B|--14----14----14---12----12----12--14----14----14------15----15----15----15----15-|
G|----14----14-----------13----13--------14----14------14----14----14----14----14---|
D|------14----14--14---14----14--------16----16-------------------------------------|
A|----------------------------------------------------------------------------------|
E|----------------------------------------------------------------------------------|

1:18

(aqui van voces de anthony distorcionadas y 2 guitarras, una puede ser Omar Rodriguez)

Gitarra 1

e|--------------------------|
B|--------------------14~---|
G|--------------------------|
D|-11~~~-11~~~-11~-~--------|
A|--------------------------|
E|--------------------------|

Gitarra 2

e|--------------------------|
B|----14-14----14-14----14--|
G|-11-------11-------11-----|
D|--------------------------|
A|--------------------------|
E|--------------------------|

1:33

Gitarra 1

e|----14~--14-19-14-19-14-19--|
B|-14~------------------------|
G|----------------------------|
D|----------------------------|
A|----------------------------|
E|----------------------------|

Gitarra 2

e|--------------------------|
B|----14-14----14-14----14--|
G|-11-------11-------11-----|
D|--------------------------|
A|--------------------------|
E|--------------------------|


1:45 (esta parte la tocan con una gitarra afinada diferente, pero yo la toco en una en E)

e|-------------------------|
B|-------------------------|
G|-------------------------|
D|--7--2--4-0---7-2-4-0----|
A|--7--2--4-0---7-2-4-0----|
E|--5--0--2-x---5-0-2-x----|


Hasta ahi puedo por ahora, no tengo mas tiempo pero mañana subo el resto
            
Submit corrections

comments powered by Disqus
↑ Back to top | Red Hot Chili Peppers Tabs for Especially In Michigan. Lyrics for acoustic guitar and electric guitar. Tablatures and chords are parodies/interpretations of the original songs. You may use it for private study, scholarship, research or language learning purposes only