» » »

Red Hot Chili Peppers, Especially In Michigan Bass tabs (ver.2)

Artists:  A B C D E F G H I J K L M N O P Q R S T U V W X Y Z # 

Especially In Michigan Bass tabs (ver.2)

Red Hot Chili Peppers Tabs
Rating:
0/5 (0 votes)
Especially In Michigan lessons Tabs too difficult? Try these video lessons and learn fast
                ----------------------------------------------------------------------------
	        Red Hot Chili Peppers - Especially in Michigan
----------------------------------------------------------------------------


Tuning: EADG

Intro
G|--------------------------------------------------------------------------------------|
D|-14h16--16-16-16--16-16--16-16--16--16-16-14h16--16-16-16--16-16--16-16---------------|
A|------------------------------------------------------------------------14h16-14------|
E|--------------------------------------------------------------------------------------|

G|---------------------------------------------------------------------------------------|
D|-14h16--16-16-16--16-16--16-16--16--16-16-14h16--16-16-16--16-16--16-16--16--16-16-----|
A|---------------------------------------------------------------------------------------|
E|---------------------------------------------------------------------------------------|

Verse
G|----------------------------------------------------------|
D|----------------------------------------------------------|
A|-9--9-9-9--9-9---------------7--7-7-7--7-7----------------|
E|---------------9--9-9-9--9-9---------------7--7-7-7--7-7--|

Chorus 1
G|-------------------------------------------------------------------|
D|------------------------------------------------7------------------|
A|-----------------7-7-7-7-7-7-7-7--9-9-9-9-9-9-9---5-5-5-5-5-5-5-5--|
E|-5-5-5-5-5-5-5-5---------------------------------------------------|

G|---------------------------------------------------------------------------------------|
D|---------------------------------------------------------------------------------------|
A|-----------------7-7-7-7-7-7-7-7--9-9-9-9-9-9-9-9--5-5-5-5-5-5-5-5-5-5-5-5-5-5-5-5-----|
E|-5-5-5-5-5-5-5-5-----------------------------------------------------------------------|

Chorus 2
G|----------------------------------------------------------------------------|
D|----------------------------------------------------------------------------|
A|-12--12-12--12-12-12-127--7-7--7-7-7-7/9--9-9--9-9-9-95--5-5--5-5-5-5/------|
E|----------------------------------------------------------------------------|

G|--------------------------------------------------------------------------|
D|--------------------------------------------------------------------------|
A|-/12--12-12--12-12-12-127--7-7--7-7-7-7/9--9-9--9-9-9-95--5-5—5-5-5-5-----|
E|--------------------------------------------------------------------------|

Guitar Solo Part 1
G|--------------------------------------------------------|
D|--------------------------------------------------------|
A|----------------------------4--4-4-4--4-4--7-7--7--7-7--|
E|-2--2-2-2--2-2--5-5--5--5-5-----------------------------|

Guitar Solo Part 2
G|---------------------------------------------------------|
D|---------------------------------------------------------|
A|-9--9-9-9--9-9--5-5--5--5-5--7--7-7-7--7-7---------------|
E|--------------------------------------------7-7--7--7-7--|

Guitar Solo Part 3
G|----------------------------------------------------------|
D|----------------------------------------------------------|
A|----------------------------------------------------------|
E|-2--2-2-2--2-2-2--2-2-2--2-2-2--2-2-2--2-2-2--2-2-2--2-2--|

Outro
G|----------------------------------------------------------------------------|
D|----------------------------------------------------------------------------|
A|-12--12-12--12-12-12-127--7-7--7-7-7-7/9--9-9--9-9-9-95--5-5--5-5-5-5/------|
E|----------------------------------------------------------------------------|

G|------------------------------------------------------------------7-----|
D|----------------------------------------------------------------7-------|
A|-/12--12-12--12-12-12-127--7-7--7-7-7-7/9--9-9--9-9-9-9/5--5-5----------|
E|------------------------------------------------------------------------|

G|--------------------------------------------------------------------------------|
D|--------------------------------------------------------------------------------|
A|-5/12--12-12--12-12-12-127--7-7--7-7-7-7/9--9-9--9-9-9-95--5-5--5-5-5-5/--------|
E|--------------------------------------------------------------------------------|

G|----------------------------------------------------------------------------------|
D|----------------------------------------------------------------------------------|
A|-/12--12-12--12-12-12-127--7-7--7-7-7-7/9--9-9--9-9-9-95--5-5--5-5-5-5--5-5--5-5--|
E|----------------------------------------------------------------------------------|

End On
G|----|
D|----|
A|----|
E|-2--|

Order:
Intro(1x)
Verse(10x)
Chorus 1(1x)
Verse(6x)
Chorus 2(2x)
Guitar Solo Part 1(2x)
Guitar Solo Part 2(2x)
Guitar Solo Part 3(2x)
Verse(4x)
Outro(1x)
End On(1x)

| /  slide up
|   slide down
| h  hammer-on
| p  pull-off
| ~  vibrato
| +  harmonic
| x  Mute note
===============================================================================
            

comments powered by Disqus
↑ Back to top | Red Hot Chili Peppers Bass for Especially In Michigan. Lyrics for acoustic guitar and electric guitar. Tablatures and chords are parodies/interpretations of the original songs. You may use it for private study, scholarship, research or language learning purposes only