>
 >
Universally Speaking

Universally Speaking Guitar Tabs

Red Hot Chili Peppers - Universally Speaking chords, tabs, tablatures, lyrics

Guitar lessons | Add/correct | Request | Top 50 tabs Artists:  A B C D E F G H I J K L M N O P Q R S T U V W X Y Z 0-9

Universally Speaking Guitar Tabs – Red Hot Chili Peppers

CD, Sheet music, Poster

Do you like Universally Speaking? Share with your friends now
ChordsTabsTabs v2Tabs v3Tabs v4
PROPS GO TO: chester_rc

Intro/Verses/Chorus
e|-2--2--2--2-2--2-2--2--2--x---0--0--0--0-0--0-0--0--0--x-|
B|-3--3--3--3-3--3-3--3--3--x---8--8--8--8-8--8-8--8--8--x-|
G|-2--2--2--2-2--2-2--2--2--x---7--7--7--7-7--7-7--7--7--x-|
D|-0--0--0--0-0--0-0--0--0--x---0--0--0--0-0--0-0--0--0--x-|
A|------------------------------7--7--7--7-7--7-7--7--7--x-|
E|---------------------------------------------------------|

Bridge ('Come on, baby, 'cause that's no name for...) 
e|-5--5--5-5-5--5-5-5-5--5-5-5--4--4--4-4-4--4-4-4-4--4-4-4--3--3--3-3-3-|
B|-5--5--5-5-5--5-5-5-5--5-5-5--5--5--5-5-5--5-5-5-5--5-5-5--3--3--3-3-3-|
G|-6--6--6-6-6--6-6-6-6--6-6-6--6--6--6-6-6--6-6-6-6--6-6-6--4--4--4-4-4-|
D|-7--7--7-7-7--7-7-7-7--7-7-7--6--6--6-6-6--6-6-6-6--6-6-6--5--5--5-5-5-|
A|-7--7--7-7-7--7-7-7-7--7-7-7--0--0--0-0-0--0-0-0-0--0-0-0--5--5--5-5-5-|
E|-5--5--5-5-5--5-5-5-5--5-5-5-------------------------------3--3--3-3-3-|
     
e|-3-3-3-3--3-3-3--7-7---7-7-|
B|-3-3-3-3--3-3-3--7-7---7-7-|
G|-4-4-4-4--4-4-4--7-7---7-7-|
D|-5-5-5-5--5-5-5--9-9---9-9-|
A|-5-5-5-5--5-5-5--9-9---9-9-| x2
E|-3-3-3-3--3-3-3--7-7---7-7-|

 (Live in the long run...)
e|-0-0-0-0--0-0-0-0------------7------------|
B|-1-1-1-1--1-1-1-1--4-4---4---8------------|
G|-2-2-2-2--2-2-2-2--2-2---2---9-(let ring)-|
D|-2-2-2-2--2-2-2-2--4-4---4---9------------|
A|-x-x-x-x--x-x-x-x------------7------------|
E|-2-2-2-2--2-2-2-2-------------------------|

Solo
e|----------------------------------------------------------------------|
B|----------------------------------------------------------------------|
G|----------------------------------------------------------------------|
D|-16-14-12-14--12-11-12-11-12--14--12-11-12--14\7--7--7-7--16-14-12-14-|
A|----------------------------------------------------------------------|
E|----------------------------------------------------------------------|

e|-----------------------------------------------------------------------|
B|-----------------------------------------------------------------------|
G|-----------------------------------------------------------------------|
D|-12-11-12-11-12--14--12-11-12--14/19--19--19-19--16-14-12-14--12-11-12-|
A|-----------------------------------------------------------------------|
E|-----------------------------------------------------------------------|

e|-------------------------------------------------------------------|
B|-------------------------------------------------------------------|
G|-------------------------------------------------------------------|
D|-11-12--14--12-11-12--11\7--7--7-7--7-5-4-5b(6)--0--0----7----7\12-|
A|-------------------------------------------------------------------|
E|-------------------------------------------------------------------|





Comments


Popular Red Hot Chili Peppers tabs & chords
Adventures Of Raindance Maggy Bass Tabs
By The Way 2 Bass Tabs
By The Way 6 Bass Tabs
Cant Stop 2 Bass Tabs
Dosed 2 Bass Tabs
Walkabout 2 Bass Tabs
Blackeyed Blonde Tabs
Cabron Intro Tabs
Someone Tabs
Tearjerker Tabs


Song lyrics



↑ Back to top | Tablatures and chords are parodies/interpretations of the original songs. You may use it for private study, scholarship, research or language learning purposes only
© 2014 AZChords.com Contact us | Privacy policy | DMCA | Add/correct tabs | Request tabs | Top 50 tabs