» » »

Hyper Music Bass tabs (ver.2)

Artists:  A B C D E F G H I J K L M N O P Q R S T U V W X Y Z # 

Hyper Music Bass tabs (ver.2)

Muse
Rating:
0/5 (0 votes)

Hard to play? Try these video lessons and learn fast.
                (2)
Intro
G---------
D---------
A---------
D-0/12\0--

Chorus
G------------------------
D------------------------
A------------------------
D-0~----0~----0~----0~---

G---------------------------
D---------------------------
A---5-----3-5---5-----------           x4
D-0---3-5-----0---3-5-3-2---

Verse
G-----------------------------------------------------------------------------------
D-0-0-0-2-0-3-3-0-5-0-7-7-0-9-0-10-10-0-12-0-5-5-0-5-0-5-5-0-5-0-5-5-0-7-0-8-8----0
A-------------------------------------------------------------------------------3--
D----------------------------------------------------------------------------------
            
Hard to play? Try these video lessons and learn fast. | Correct




comments powered by Disqus
↑ Back to top | Tablatures and chords are parodies/interpretations of the original songs. You may use it for private study, scholarship, research or language learning purposes only