» » »

Muse, Hyper Music Tabs (ver.2)

Artists:  A B C D E F G H I J K L M N O P Q R S T U V W X Y Z # 

Hyper Music Tabs (ver.2)

Muse Tabs
Rating:
0/5 (0 votes)
Hyper Music lessons Tabs too difficult? Try these video lessons and learn fast
                "(1)
Intro

e-----------13----------------|
b-----------13-12-13-12-11----|
g-----------11-11-11-11-11----|  x 4
d-----------12-12-12-12-12----|
a-----------------------------|
d--------0--------------------|

e---------------------------|--------------------------|
b---------------------------|--------------------------|
g-----7-----------7---------|----7----------7----------| x 2
d-----7-----------7-4-5-4-3-|----7----------7-4444-----|
a-----5-----3-5---5-2-3-2-1-|----5----3-5---5-2222-----|
d---0---3-5-----0-----------|--0---3-5----0------------|

pre verse

e|-10-10-10-10-10-10-10-10|
B|-10-10-10-10-10-10-10-10|
G|-10-10-10-10-10-10-10-10|
D|------------------------|
A|------------------------|
D|------------------------|

Verse

e|-10-10-10-10-10-10-10-10|--8--8--8--8--8--8--8--8-|
B|-10-10-10-10-10-10-10-10|-10-10-10-10-10-10-10-10-|
G|-10-10-10-10-10-10-10-10|--9--9--9--9--9--9--9--9-|
D|------------------------|-------------------------|
A|------------------------|-------------------------|
D|------------------------|-------------------------|

e|-7-7-7-7-7-7-7-7-|-6-6-6-6-6-6-6-6-|
B|-8-8-8-8-8-8-8-8-|-8-8-8-8-8-8-8-8-|
G|-7-7-7-7-7-7-7-7-|-7-7-7-7-7-7-7-7-| X2
D|-----------------|-----------------| 
A|-----------------|-----------------|
D|-----------------|-----------------|

e|-10-10-10-10-10-10-10-10|--8--8--8--8--8--8--8--8-|
B|-10-10-10-10-10-10-10-10|-10-10-10-10-10-10-10-10-|
G|-10-10-10-10-10-10-10-10|--9--9--9--9--9--9--9--9-|
D|------------------------|-------------------------|
A|------------------------|-------------------------|
D|------------------------|-------------------------|

e|-7-7-7-7-7-7-7-7-|-6-6-6-6-6-6-6-6-|
B|-8-8-8-8-8-8-8-8-|-8-8-8-8-8-8-8-8-|
G|-7-7-7-7-7-7-7-7-|-7-7-7-7-7-7-7-7-| X3
D|-----------------|-----------------| 
A|-----------------|-----------------|
D|-----------------|-----------------|

e|-10-10-10-10-10-10-10-10|--8--8--8--8--8--8--8--8-|
B|-10-10-10-10-10-10-10-10|-10-10-10-10-10-10-10-10-|
G|-10-10-10-10-10-10-10-10|--9--9--9--9--9--9--9--9-|
D|------------------------|-------------------------|
A|------------------------|-------------------------|
D|------------------------|-------------------------|

e|-7-|
B|-8-|
G|-7-|   x1
D|---|
A|---|
D|---|


E|-xxxxxxxxxx---|
B|-xxxxxxxxxx---|
G|-xxxxxxxxxx---|
D|-xxxxxxxxxx---|
A|-xxxxxxxxxx---|
D|-xxxxxxxxxx---|

Intro

For verse two you pick the chords in the verse up and down

Intro

I’m not sure about the last bit but I just play the intro again
"            
Submit corrections

comments powered by Disqus
↑ Back to top | Muse Tabs for Hyper Music. Lyrics for acoustic guitar and electric guitar. Tablatures and chords are parodies/interpretations of the original songs. You may use it for private study, scholarship, research or language learning purposes only