» » »

Hyper Music Bass tabs (ver.1)

Artists:  A B C D E F G H I J K L M N O P Q R S T U V W X Y Z # 

Hyper Music Bass tabs (ver.1)

Muse
Rating:
0/5 (0 votes)

Hard to play? Try these video lessons and learn fast.
                (1)
Tuning:  Dropped D (DADG)
\ = slide up the neck (toward 1 fret)

Intro / Pre-Chorus – x3
G|----------   Hold note slightly before you slide
D|----------
A|----------
D|--12\0----

Chorus – x4
G|-----------------------------
D|-----------------------------
A|---5-------3-5---5-0-2-3-2-1-
D|-0---0-3-5-----0-------------

Verse – x6 on sixth time stop at the line
G|-------------------------------------------|-------------------------------------
D|-0-0-0-2-0-3-3-0-5-0-7-7-0-9-10-10-0-12-0-5|-5-0-5-0-5-5-0-5-0-5-5-0-7-0-8-8-0-1-
A|-------------------------------------------|-------------------------------------
D|-------------------------------------------|-------------------------------------

Pre-Chorus – x4
Chorus – x4
Verse – x4 fourth time stop at the line
Pre-Chorus – x4
Chorus – x8

Verse riff has got to be the coolest riff for bass ever!!!
            
Hard to play? Try these video lessons and learn fast. | Correct




comments powered by Disqus
↑ Back to top | Tablatures and chords are parodies/interpretations of the original songs. You may use it for private study, scholarship, research or language learning purposes only