» » »

Hysteria Tabs (ver.1)

Artists:  A B C D E F G H I J K L M N O P Q R S T U V W X Y Z # 

Hysteria Tabs (ver.1)

Muse
Rating:
0/5 (0 votes)

Hard to play? Try these video lessons and learn fast.
                Hey there, this is my very first tab, i hope it's ryt  sorry if its 
not im sorry.
I really wana no if peaple agree wiv me wen i say MUSE IS DA BESTBND 
tab, cheerz...
james




Riff

-------5-3----5--3--5-3--55----------------------------------------
---9------8--------4----3------------------------------------------

Verse

it's bugging me
calling me
and twisting me around

yeah I'm endlessly
caving in
and turning inside out

Chorus

---3-----3-------4-----4--------------------------------------------
---3-----3-------4-----4--------------------------------------------
---5----3--------6-----4-------------------------------------------
---5-----5-------6-----6--------------------------------------------
---3-----5-------4-----6--------------------------------------------
---3-----3-------4-----4--------------------------------------------

because I want it now
I want it now
give me your heart and your soul
and I'm breaking out
I'm breaking out
that's when she'll lose control


Riff
(same as start)

Verse 2
yeah it's hurting me
morphing me
and forcing me to strive

to be endlessly
caving in
and dreaming of my love

Chorus (same as first chorus)

Solo 1

------12----13-----13-12--------12---13---13-12-------12----16----13-12 X2
---10----10----10---------10-9-----9----9-------9--10----10----10-----

solo 2 (still workin on tht, sorry)

Chorus...

pretty easy once youve got it
            
Hard to play? Try these video lessons and learn fast. | Correct




comments powered by Disqus
↑ Back to top | Tablatures and chords are parodies/interpretations of the original songs. You may use it for private study, scholarship, research or language learning purposes only