» » »

Muse, Time Is Running Out Tabs (ver.1)

Artists:  A B C D E F G H I J K L M N O P Q R S T U V W X Y Z # 

Time Is Running Out Tabs (ver.1)

Muse Tabs
 Rating:
4.2/5 (5 votes)
Time Is Running Out lessons Tabs too difficult? Try these video lessons and learn fast
                PROPS GO TO: pigyzoiyg

Verse
E--12-------11------------12-13-10----
B-----13-10----13-10-9-12----------12-
G-------------------------------------
D-------------------------------------
A-------------------------------------
E-------------------------------------
	
Pre chorus
E------------------------
B------------------------
G------------------------
D--77777777-55555555-----
A--77777777-55555555-----
E--55555555-33333333-----  x4 

E----------------
B----------------
G-12--10---9-----
D----------------
A-10--8----7-----
E----------------
  Our time is

Chorus
E--1--3---5--3----
B--1--3---5--3----
G--2--4---6--5----
D--3--5---7--5----
A--3--5---7--3----
E--1--3---5-------  X2

Last line of chorus
E------------------
B------------------
G------------------
D------------------
A-----3--------5---
E-1-1---1--3-3---3-

Solo before verse 2
E--------------------------
B--------------------------
G-9------8----------9-10-7-
D---10-7---10-7-6-9--------
A--------------------------
E--------------------------

Verse 2
E------------------------------------------------
B------------------------------------------------
G--2-2-5-2---4-4-2-4-------9---------------------
D--2-2-5-2---4-4-2-4---2-2-9-2-------------------
A--0-0-3-0---2-2-0-2---2-2-7-2-------3--------5--
E----------------------0-0---0---1-1---1--3-3---3  x3

2nd Pre Chorus
E-------------------------------------------------
B-------------------------------------------------
G--14-14-14-14-14-14-14-14-12-12-12-12-12-12-12-12
D-------------------------------------------------
A--12-12-12-12-12-12-12-12-10-10-10-10-10-10-10-10
E-------------------------------------------------  X4

E----------------
B----------------
G-12--10---9-----
D----------------
A-10--8----7-----
E----------------
  Our time is

Chorus
E--1--3---5--3----
B--1--3---5--3----
G--2--4---6--5----
D--3--5---7--5----
A--3--5---7--3----
E--1--3---5-------  X2

Then Go into
E--------0--------
B--------0-------- 
G--7-----2--------
D--7-----2--------
A--5-----0--------        
E-----------------      X3
   O-o-o yeah yeah yeah

After 3rd Time
E--------
B--------
G-1------
D-2------
A-2------
E-0------

Then pick these chords
E--12--11--10--8--
B--13--13--12--8--
G--14--14--13--7--
D-----------------
A-----------------
E-----------------

3rd Pre Chorus
E-------------------------------------------------
B-------------------------------------------------
G--14-14-14-14-14-14-14-14-12-12-12-12-12-12-12-12
D-------------------------------------------------
A--12-12-12-12-12-12-12-12-10-10-10-10-10-10-10-10
E-------------------------------------------------  X4

E----------------
B----------------
G-12--10---9-----
D----------------
A-10--8----7-----
E----------------
  Our time is

Chorus
E--1--3---5--3----
B--1--3---5--3----
G--2--4---6--5----
D--3--5---7--5----
A--3--5---7--3----
E--1--3---5-------  X2

Then Go into
E--------0--------                               
B--------0--------                               
G--7-----2--------                               
D--7-----2--------                               
A--5-----0--------                              
E-----------------      X3     
   O-o-o yeah yeah yeah

After 3rd Time
E--------
B--------
G-1------
D-2------
A-2------
E-0------

Outro
e--------------
B--------------
G-9--8--7--5---
D--------------
A--------------
E--------------
            
Submit corrections

comments powered by Disqus
↑ Back to top | Muse Tabs for Time Is Running Out. Lyrics for acoustic guitar and electric guitar. Tablatures and chords are parodies/interpretations of the original songs. You may use it for private study, scholarship, research or language learning purposes only