» » »

Muse, Hyper Music Tabs (ver.3)

Artists:  A B C D E F G H I J K L M N O P Q R S T U V W X Y Z # 

Hyper Music Tabs (ver.3)

Muse Tabs
 Rating:
4/5 (4 votes)
Hyper Music lessons Tabs too difficult? Try these video lessons and learn fast
                "(2)
Hypermusic

Tuning - Drop D



Opening

Scratch around on the two lowest strings, slowy then build up the pace
with lots of distotion then

e--------
b--------
g--------
d--19\\--
a--17\\--
d--------

e--------------------
b--------------------
g----17--------------
d----16-16-17-16-15-- x 4
a----17-14-15-14-13--
d--0-----------------
 
e---------------------------
b----6-----------6----------
g----5-----------5----------
d----4-----------4-4-5-4-3-- x 4
a----5-----3-5---5-2-3-2-1--
d--0---3-5-----0------------


e--10--
b--10--
g--10-- x16
d------
a------
d------

Pre-verse
   Dm   Am   G   Gm
e--10----8---7---6--
b--10---10---8---8--
g--10----9---7---7-- x2
d------------------- 
a-------------------
d-------------------

Then straight into the first verse

            Dm    Am     G      Gm
Your golden lies feed my role

		  Dm	      Am       G      Gm
In this forgotten space race, under my control

Dm      Am     G                     Gm
Who_________'s returned from the dead

Dm      Am   G
Who_________ remains


e--x-x-x-x-x-x-------
b--x-x-x-x-x-x-------
g--x-x-x-x-x-x-------
d--x-x-x-x-x-x-19\\--
a--x-x-x-x-x-x-17\\--
d--x-x-x-x-x-x-------

Chorus

e--------------------
b--------------------
g----17--------------
d----16-16-17-16-15-- x 4
a----17-14-15-14-13--
d--0-----------------

e---------------------------
b----6-----------6----------
g----5-----------5----------
d----4-----------4-4-5-4-3-- x 4
a----5-----3-5---5-2-3-2-1--
d--0---3-5-----0------------

You know that i dont want you
and i never did
I dont want you
and i never will


Pre Verse

e--10--
b--10--
g--10-- x16
d------
a------
d------

Verse 2

(No Guitar)

You wanted more than i was wort
and u think i was scared and need proof



    Dm                      Am                 G               Gm
e--/////////////10-------10-------10----8------8------8----7-|----7-----7---6-----6-----6----
b------------------10-------10-------10---10-----10-----10---|8-----8-----8---8-----8-----8--
g---------------------10-------10------------9------9--------|--7-----7---------7-----7------
d------------------------------------------------------------|-------------------------------
a------------------------------------------------------------|-------------------------------
d------------------------------------------------------------|-------------------------------
						 	     |On 2nd repeat finish here
					

Dm       Am          G        Gm
who___________ cares anymore

Dm       Am        G
who___________ restrains


e--x-x-x-x-x-x-------
b--x-x-x-x-x-x-------
g--x-x-x-x-x-x-------
d--x-x-x-x-x-x-19\\--
a--x-x-x-x-x-x-17\\--
d--x-x-x-x-x-x-------

Chorus

e--------------------
b--------------------
g----17--------------
d----16-16-17-16-15-- x 4
a----17-14-15-14-13--
d--0-----------------

e---------------------------
b----6-----------6----------
g----5-----------5----------
d----4-----------4-4-5-4-3-- x 4
a----5-----3-5---5-2-3-2-1--
d--0---3-5-----0------------

You know that i dont love you
and i never did
I dont want you
and i never will


Outro

e--------------------
b--------------------
g----17--------------
d----16-16-18-18-18-- x 8 
a----17-14-16-16-16--
d--0-----------------
"            
Submit corrections

comments powered by Disqus
↑ Back to top | Muse Tabs for Hyper Music. Lyrics for acoustic guitar and electric guitar. Tablatures and chords are parodies/interpretations of the original songs. You may use it for private study, scholarship, research or language learning purposes only