>
 >
Hyper Music

Hyper Music Guitar Tabs

Muse - Hyper Music chords, tabs, tablatures, lyrics

Guitar lessons | Add/correct | Request | Top 50 tabs Artists:  A B C D E F G H I J K L M N O P Q R S T U V W X Y Z 0-9

Hyper Music Guitar Tabs – Muse

CD, Sheet music, Poster

Do you like Hyper Music? Share with your friends now
Bass TabsBass Tabs v2Bass Tabs v3Bass Tabs v4Bass Tabs v5TabsTabs v2Tabs v3Tabs v4

I can guarantee this tab is 100% correct, however, if you disagree, have any questions, comments or whatever,

You need two electric guitars for this song, and they both need to be in dropped D tuning (lowest E string
tuned down to a D, for those who are unsure). Also, use heavy distortion unless otherwise indicated.
For the first pick scratch in the intro, start at about fret 14 and scratch all the way down the fretboard.  

Chords used:
              D7#9      0x12 11 13 13
              D7#9(2)   x5456x
              Dm        xxx10 10 10
              Am        xxx9 10 8
              G         xxx787
              Gm        xxx786

Key to tablature:

~~~ = pick scrape 
~<~ = pick scrape towards nut
~>~ = pick scrape towards bridge
/ or \ = slide to numbered fret
h = hammer on
p = pull off
() = around a numbered fret indicates note is fretted or implied, but not necessarily played
b = bend string up to the pitch of the numbered () fret
G(1) = Guitar 1
G(2) = Guitar 2

Intro:

G(1) only                               D7#9
 --------------- E--------------------|-----13-----------------------|-----13-----------------------|
 -w/ad lib-pick- B--------------------|-----13-------12--13--12--11--|-----13-------12--13--12--11--|
 -scratching-at- G--------------------|-----11---0-------------------|-----11---0-------------------|
 -top of neck--- D--------------------|-----12-------12--12--12--12--|-----12-------12--12--12--12--|
 --------------- A-----------5/-14-\--|------------------------------|------------------------------|
 --------------- D--x~~~<~~~~---------|--0---------------------------|--0---------------------------|
                                                                                                    |
       E-----13-----------------------|-----13-----------------------|-----12-----------------------|
       B-----13-------12--13--12--11--|-----13-------12--13--12--11--|-----13-----------------------|
       G-----11---0-------------------|-----11---0-------------------|-----11-----------------------|
       D-----12-------12--12--12--12--|-----12-------12--12--12--12--|-----12-----------------------|
       A------------------------------|------------------------------|------------------------------|
       D--0---------------------------|--0---------------------------|--0-----------12--12---12-\---|

Lyrics                                                                                        Ooh,

G(1) + G(2) together

         D7#9(2)
       E------------------------------|------------------------------|------------------------------|
       B------6-----------------------|------6-----------------------|------6-----------------------|
       G------5-----------------------|------5-----------------------|------5-----------------------|
       D------4-----------------------|------4-------3---3---3---3---|------4-----------------------|
       A-----(5)----------------3--5--|-----(5)------2---3---2---1---|-----(5)----------------3--5--|
       D--0-------0---3--3--5---------|--0-------0-------------------|--0-------0---3--3--5---------|

Lyrics    ooh.    _____________________________________________________________________________

       E------------------------------|------------------------------|------------------------------|
       B------6----x--x--x------------|------6-----------------------|------6-----------------------|
       G------5----x--x--x---8--8--8--|------5-----------------------|------5-----------------------|
       D------4----x--x--x---7--7--7--|------4-----------------------|------4-------3---3---3---3---|
       A-----(5)---x--x--x------------|-----(5)----------------3--5--|-----(5)------2---3---2---1---|
       D--0---------------------------|--0-------0---3--3--5---------|--0-------0-------------------|
       
Lyrics                          Ooh,     ooh.   _______________________________________________

G(1)                                                                   Dm
       E------------------------------|------------------------------|------------------------------|
       B------6-----------------------|------6----x--x--x------------|------------------------------|
       G------5-----------------------|------5----x--x--x---8--8--8--|------------------------------|
       D------4-----------------------|------4----x--x--x---7--7--7--|------------------------------|
       A-----(5)----------------3--5--|-----(5)---x--x--x------------|------------------------------|
       D--0-------0---3--3--5---------|--0---------------------------|--0---------------------------| 
G(2)                                  |                              |                              |
       E------------------------------|------------------------------|--10-10-10-10--10-10-10-10----|
       B------6-----------------------|------6----x--x--x------------|--10-10-10-10--10-10-10-10----|
       G------5-----------------------|------5----x--x--x---8--8--8--|--10-10-10-10--10-10-10-10----|
       D------4-----------------------|------4----x--x--x---7--7--7--|---x--x--x--x---x--x--x--x----|
       A-----(5)----------------3--5--|-----(5)---x--x--x------------|---x--x--x--x---x--x--x--x----|
       D--0-------0---3--3--5---------|--0---------------------------|---x--x--x--x---x--x--x--x----|

G(1)                                                                   Am
       E------------------------------|------------------------------|------------------------------|
       B------------------------------|------------------------------|------------------------------|
       G------------------------------|------------------------------|------------------------------|
       D------------------------------|------------------------------|------------------------------|
       A------------------------------|------------------------------|------------------------------|
       D------------------------------|--0--0--x-2--x-3--3--x-5--x---|--7--7--x--9--x-10-10--x-12-x-|
G(2)                                  |                              |                              |
       E--10-10-10-10--10-10-10-10----|--10-10-10-10--10-10-10-10----|---8--8--8--8---8--8--8--8----|
       B--10-10-10-10--10-10-10-10----|--10-10-10-10--10-10-10-10----|--10-10-10-10--10-10-10-10----|
       G--10-10-10-10--10-10-10-10----|--10-10-10-10--10-10-10-10----|---9--9--9--9---9--9--9--9----|
       D---x--x--x--x---x--x--x--x----|---x--x--x--x---x--x--x--x----|---x--x--x--x---x--x--x--x----|
       A---x--x--x--x---x--x--x--x----|---x--x--x--x---x--x--x--x----|---x--x--x--x---x--x--x--x----|
       D---x--x--x--x---x--x--x--x----|---x--x--x--x---x--x--x--x----|---x--x--x--x---x--x--x--x----|

Lyrics    Mmm     ______________________________________________________________________________

G(1)     G                              Gm                             Dm
       E------------------------------|------------------------------|------------------------------|
       B------------------------------|------------------------------|------------------------------|
       G------------------------------|------------------------------|------------------------------|
       D------------------------------|------------------------------|------------------------------|
       A------------------------------|----------0--x-1--1--x-3--x---|------------------------------|
       D--5--5--x-5--x-5--5--x-5--x---|--5--5--x---------------------|--0--0--x-2--x-3--3--x-5--x---|
G(2)                                  |                              |                              |
       E---7--7--7--7---7--7--7--7----|---6--6--6--6---6--6--6--6----|--10-10-10-10--10-10-10-10----|
       B---8--8--8--8---8--8--8--8----|---8--8--8--8---8--8--8--8----|--10-10-10-10--10-10-10-10----|
       G---7--7--7--7---7--7--7--7----|---7--7--7--7---7--7--7--7----|--10-10-10-10--10-10-10-10----|
       D---x--x--x--x---x--x--x--x----|---x--x--x--x---x--x--x--x----|---x--x--x--x---x--x--x--x----|
       A---x--x--x--x---x--x--x--x----|---x--x--x--x---x--x--x--x----|---x--x--x--x---x--x--x--x----|
       D---x--x--x--x---x--x--x--x----|---x--x--x--x---x--x--x--x----|---x--x--x--x---x--x--x--x----|

Lyrics    Mmm    ______________________________________________________________________________

G(1)     Am                             G                              Gm
       E------------------------------|------------------------------|------------------------------|
       B------------------------------|------------------------------|------------------------------| 
       G------------------------------|------------------------------|------------------------------|
       D------------------------------|------------------------------|------------------------------|
       A------------------------------|------------------------------|----------0--x-1--1--x-3--x---|
       D--7--7--x--9--x-10-10--x-12-x-|--5--5--x-5--x-5--5--x-5--x---|--5--5--x---------------------|
G(2)                                  |                              |                              |
       E---8--8--8--8---8--8--8--8----|---7--7--7--7---7--7--7--7----|---6--6--6--6---6--6--6--6----|
       B--10-10-10-10--10-10-10-10----|---8--8--8--8---8--8--8--8----|---8--8--8--8---8--8--8--8----|
       G---9--9--9--9---9--9--9--9----|---7--7--7--7---7--7--7--7----|---7--7--7--7---7--7--7--7----|
       D---x--x--x--x---x--x--x--x----|---x--x--x--x---x--x--x--x----|---x--x--x--x---x--x--x--x----|
       A---x--x--x--x---x--x--x--x----|---x--x--x--x---x--x--x--x----|---x--x--x--x---x--x--x--x----|
       D---x--x--x--x---x--x--x--x----|---x--x--x--x---x--x--x--x----|---x--x--x--x---x--x--x--x----|

Lyrics    Mmm   ___________________________________________________ 1. And your gol - den skies ___



Verse 1:
         Dm                             Am                             G
G(1)   E------------------------------|------------------------------|------------------------------|
       B------------------------------|------------------------------|------------------------------|
       G------------------------------|------------------------------|------------------------------| 
       D------------------------------|------------------------------|------------------------------|
       A------------------------------|------------------------------|------------------------------|
       D--0--0--x-2--x-3--3--x-5--x---|--7--7--x--9--x-10-10--x-12-x-|--5--5--x-5--x-5--5--x-5--x---|
                                                                     |                              |
G(2) (2°Plays harmonics w/selector switch + whammy pedal)            |                              |
                                                                     |                              |
       E--10-10-10-10--10-10-10-10----|---8--8--8--8---8--8--8--8----|---7--7--7--7---7--7--7--7----|
       B--10-10-10-10--10-10-10-10----|--10-10-10-10--10-10-10-10----|---8--8--8--8---8--8--8--8----|
       G--10-10-10-10--10-10-10-10----|---9--9--9--9---9--9--9--9----|---7--7--7--7---7--7--7--7----|
       D---x--x--x--x---x--x--x--x----|---x--x--x--x---x--x--x--x----|---x--x--x--x---x--x--x--x----|
       A---x--x--x--x---x--x--x--x----|---x--x--x--x---x--x--x--x----|---x--x--x--x---x--x--x--x----|
       D---x--x--x--x---x--x--x--x----|---x--x--x--x---x--x--x--x----|---x--x--x--x---x--x--x--x----|

Lyrics      _________________________________________ feed my role   ____________________________

         Gm                             Dm                             Am
G(1)   E------------------------------|------------------------------|------------------------------|
       B------------------------------|------------------------------|------------------------------|
       G------------------------------|------------------------------|------------------------------|
       D------------------------------|------------------------------|------------------------------|
       A----------0--x-1--1--x-3--x---|------------------------------|------------------------------|
       D--5--5--x---------------------|--0--0--x-2--x-3--3--x-5--x---|--7--7--x--9--x-10-10--x-12-x-|
G(2)                                  |                              |                              |
       E---6--6--6--6---6--6--6--6----|--10-10-10-10--10-10-10-10----|---8--8--8--8---8--8--8--8----|
       B---8--8--8--8---8--8--8--8----|--10-10-10-10--10-10-10-10----|--10-10-10-10--10-10-10-10----|
       G---7--7--7--7---7--7--7--7----|--10-10-10-10--10-10-10-10----|---9--9--9--9---9--9--9--9----|
       D---x--x--x--x---x--x--x--x----|---x--x--x--x---x--x--x--x----|---x--x--x--x---x--x--x--x----|
       A---x--x--x--x---x--x--x--x----|---x--x--x--x---x--x--x--x----|---x--x--x--x---x--x--x--x----|
       D---x--x--x--x---x--x--x--x----|---x--x--x--x---x--x--x--x----|---x--x--x--x---x--x--x--x----|

Lyrics     in this forgotten space    __________________ race   ____    and und-er my con - trol. ____

         G                              Gm                             Dm
G(1)   E------------------------------|------------------------------|------------------------------|
       B------------------------------|------------------------------|------------------------------|
       G------------------------------|------------------------------|------------------------------|
       D------------------------------|------------------------------|------------------------------|
       A------------------------------|----------0--x-1--1--x-3--x---|------------------------------|
       D--5--5--x-5--x-5--5--x-5--x---|--5--5--x---------------------|--0--0--x-2--x-3--3--x-5--x---|
                                                                                                    |
G(2)   E---7--7--7--7---7--7--7--7----|---6--6--6--6---6--6--6--6----|--10-10-10-10--10-10-10-10----|
       B---8--8--8--8---8--8--8--8----|---8--8--8--8---8--8--8--8----|--10-10-10-10--10-10-10-10----|
       G---7--7--7--7---7--7--7--7----|---7--7--7--7---7--7--7--7----|--10-10-10-10--10-10-10-10----|
       D---x--x--x--x---x--x--x--x----|---x--x--x--x---x--x--x--x----|---x--x--x--x---x--x--x--x----|
       A---x--x--x--x---x--x--x--x----|---x--x--x--x---x--x--x--x----|---x--x--x--x---x--x--x--x----|
       D---x--x--x--x---x--x--x--x----|---x--x--x--x---x--x--x--x----|---x--x--x--x---x--x--x--x----|

Lyrics                                                         Whos    ______________________

         Am                             G                              Gm
G(1)   E------------------------------|------------------------------|------------------------------|
       B------------------------------|------------------------------|------------------------------|
       G------------------------------|------------------------------|------------------------------|
       D------------------------------|------------------------------|------------------------------|
       A------------------------------|------------------------------|----------0--x-1--1--x-3--x---|
       D--7--7--x--9--x-10-10--x-12-x-|--5--5--x-5--x-5--5--x-5--x---|--5--5--x---------------------|
                                                                                                    |
G(2)   E---8--8--8--8---8--8--8--8----|---7--7--7--7---7--7--7--7----|---6--6--6--6---6--6--6--6----|
       B--10-10-10-10--10-10-10-10----|---8--8--8--8---8--8--8--8----|---8--8--8--8---8--8--8--8----|
       G---9--9--9--9---9--9--9--9----|---7--7--7--7---7--7--7--7----|---7--7--7--7---7--7--7--7----|
       D---x--x--x--x---x--x--x--x----|---x--x--x--x---x--x--x--x----|---x--x--x--x---x--x--x--x----|
       A---x--x--x--x---x--x--x--x----|---x--x--x--x---x--x--x--x----|---x--x--x--x---x--x--x--x----|
       D---x--x--x--x---x--x--x--x----|---x--x--x--x---x--x--x--x----|---x--x--x--x---x--x--x--x----|

Lyrics                            re  _____ turned  from  the dead                        Who

         Dm                             Am                             G
G(1)   E------------------------------|------------------------------|------------------------------|
       B------------------------------|------------------------------|------------------------------|
       G------------------------------|------------------------------|------------------------------| 
       D------------------------------|------------------------------|------------------------------|
       A------------------------------|------------------------------|------------------------------|
       D--0--0--x-2--x-3--3--x-5--x---|--7--7--x--9--x-10-10--x-12-x-|--5---------------------------|                                                                     |                     
                                                                     |                              |
G(2)   E--10-10-10-10--10-10-10-10----|---8--8--8--8---8--8--8--8----|---7--7--7--7---7--7--7--7----|
       B--10-10-10-10--10-10-10-10----|--10-10-10-10--10-10-10-10----|---8--8--8--8---8--8--8--8----|
       G--10-10-10-10--10-10-10-10----|---9--9--9--9---9--9--9--9----|---7--7--7--7---7--7--7--7----|
       D---x--x--x--x---x--x--x--x----|---x--x--x--x---x--x--x--x----|---x--x--x--x---x--x--x--x----|
       A---x--x--x--x---x--x--x--x----|---x--x--x--x---x--x--x--x----|---x--x--x--x---x--x--x--x----|
       D---x--x--x--x---x--x--x--x----|---x--x--x--x---x--x--x--x----|---x--x--x--x---x--x--x--x----|

Lyrics                                                       re  __________    mains

     pick scrapes leading to chorus     D7#9
G(1)   E--x-x-x-x---x-x---x-x-x-x-x---|-----13-----------------------|
       B--x-x-x-x---x-x---x-x-x-x-x---|-----13-------12--13--12--11--|
       G~~<~<~<~<~-~<~<~-~<~>~<~>~<~~-|-----11---0-------------------|
       D~~<~<~<~<~-~<~<~-~<~>~<~>~<~~-|-----12-------12--12--12--12--|
       A~~<~<~<~<~-~<~<~-~<~>~<~>~<~~-|------------------------------|
       D~~<~<~<~<~-~<~<~-~<~>~<~>~<~~-|--0---------------------------|

Lyrics    (just to spit it in your face)


Chorus

Guitars 1 + 2 together

         D7#9
       E-----13-----------------------|-----13-----------------------|-----12-----------------------|
       B-----13-------12--13--12--11--|-----13-------12--13--12--11--|-----13-----------------------|
       G-----11---0-------------------|-----11---0-------------------|-----11-----------------------|
       D-----12-------12--12--12--12--|-----12-------12--12--12--12--|-----12-----------------------|
       A------------------------------|------------------------------|---------------------5-\-15-/-|
       D--0---------------------------|--0---------------------------|--0----------~~~~<~~~~--------|

Lyrics                                                                  1.   You know that I don't
                                                                        2.   You know that I don't
         D7#9(2)
       E------------------------------|------------------------------|------------------------------|
       B------6-----------------------|------6-----------------------|------6-----------------------|
       G------5-----------------------|------5-----------------------|------5-----------------------|
       D------4-----------------5--7--|------4-------3---3---3---3---|------4-----------------5--7--|
       A-----(5)------3-----5---3--5--|-----(5)------2---3---2---1---|-----(5)------3-----5---3--5--|
       D--0-------0---3-----5---------|--0-------0-------------------|--0-------0---3-----5---------|

Lyrics     want you \_                  and I never did.  ___________________________
           love you /

       E------------------------------|------------------------------|------------------------------|
       B------6-----------------------|------6-----------------------|------6-----------------------|
       G------5-----------------------|------5-----------------------|------5-----------------------|
       D------4-------3---3---3---3---|------4-----------------5--7--|------4-------3---3---3---3---|
       A-----(5)------2---3---2---1---|-----(5)------3-----5---3--5--|-----(5)------2---3---2---1---|
       D--0-------0-------------------|--0-------0---3-----5---------|--0-------0-------------------|
      
Lyrics                 I don't           want  you,                     and I nev ___ er will

                                                                       Dm
G(1)   E------------------------------|-----------------------------||------------------------------|
       B------6-----------------------|------6----------------------||------------------------------|
       G------5-----------------------|------5----------------------||------------------------------|
       D------4-----------------5--7--|------4-------3---3---3---3--||------------------------------|
       A-----(5)------3-----5---3--5--|-----(5)------2---3---2---1--||------------------------------|
       D--0-------0---3-----5---------|--0-------0------------------||--0---------------------------|
                                                                                                    |
G(2)   E------------------------------|-----------------------------||--10-10-10-10--10-10-10-10----|
       B------6-----------------------|------6----------------------||--10-10-10-10--10-10-10-10----|
       G------5-----------------------|------5----------------------||--10-10-10-10--10-10-10-10----|
       D------4-----------------5--7--|------4-------3---3---3---3--||---x--x--x--x---x--x--x--x----|
       A-----(5)------3-----5---3--5--|-----(5)------2---3---2---1--||---x--x--x--x---x--x--x--x----|
       D--0-------0---3-----5---------|--0-------0------------------||---x--x--x--x---x--x--x--x----|

Lyrics




Verse 2 (As above, but guitar 2 plays broken chords, shown below)

      And you wanted more than I was worth,
      and you think I was scared yeah,
      you needed proof.
      Who really cares anymore?
      Who restrains?

        Dm                       Am                     G                    Gm       
      E---10---------10--------|----8---------8-------|----7--------7------|----6-------6-------|
      B------10---------10-----|------10--------10----|------8--------8----|------8-------8-----|
      G---------10---------10--|---------9---------9--|--------7--------7--|--------7-------7---|
      D------------------------|----------------------|--------------------|--------------------|
      A------------------------|----------------------|--------------------|--------------------|
      D------------------------|----------------------|--------------------|--------------------|

              Dm                       Am                     G                           
      E---10-------10--------------|---8-------8------------|--7-----------|
      B------10-------10----10-----|-----10------10---10----|--8-----------|
      G---------10-------10----10--|--------9-------9----9--|--7-----------|
      D----------------------------|------------------------|--------------|
      A----------------------------|------------------------|--------------|
      D----------------------------|------------------------|--------------|


Chorus 2  (as above, with lyric line 2. Do not play the final bar with Dm chord, but go straight to the
           outro from the double bar)


Outro

Guitars 1 + 2 together

      E------------------------------|------------------------------|------------------------------|
      B------6-----------------------|-----13-----------------------|-----13-----------------------|
      G------5-----------------------|-----11-----------------------|-----11-----------------------|
      D------4-------3---3---3---3---|-----12---0----0-/-11--11--11-|-----12---0----0-/-11--11--11-|
      A-----(5)------2---3---2---1---|------0-----------------------|------0-----------------------|
      D--0-------0-------------------|--0---0-----------------------|--0---0-----------------------|
  
Lyrics         Waaaaaaaaahhhhhh


      E------------------------------|------------------------------------|------------------------|
      B-----13-----------------------|---13-----12b(13)-------------------|------------------------|
      G-----11-----------------------|---11-----12b(13)-12-12-10h12p10----|-10---------------------|
      D-----12---0----0-/-11--11--11-|---12-0-0------------------------12-|-----0------------------|
      A------0-----------------------|----0-------------------------------|-----------------3---5--|
      D--0---0-----------------------|-0--0-------------------------------|--------0--4---5--------|

        D7#9(2)
      E------------------------------|------------------------|------------------------------------|
      B---6--12b(13)-----------------|------------------------|----6--x-x--14-14-14-14-14-14-14-14-|
      G---5--12b(13)--12-12-10-10----|-10---------------------|----5--x-x--13-13-13-13-13-13-13-13-|
      D---4-----------------------12-|----0-------------------|----4--x-x--------------------------|
      A---5--------------------------|-----------------3---5--|----5--x-x--------------------------|
      D-0----------------------------|-------0--4---5---------|-0----------------------------------|

      E-----------------------------||
      B-----------------------------||
      G-----(prebend)-9b(10)--------||
      D-----------------------------||
      A-----------------------------||
      D--0--------------------------||





Comments


Popular Muse tabs & chords
Fillip 3 Bass Tabs
Fury 3 Bass Tabs
Hyper Music Bass Tabs
Exogenesis Symphony Part 1 Overture Chords
Feeling Good 4 Chords
Debase Masons Grog Tabs
Forced In Tabs
In Your World Outro Tabs
In Your World Studio Ver Tabs
Coma Ukulele


Song lyrics



↑ Back to top | Tablatures and chords are parodies/interpretations of the original songs. You may use it for private study, scholarship, research or language learning purposes only
© 2014 AZChords.com Contact us | Privacy policy | DMCA | Add/correct tabs | Request tabs | Top 50 tabs