» » »

Hyper Music Bass tabs (ver.3)

Artists:  A B C D E F G H I J K L M N O P Q R S T U V W X Y Z # 

Hyper Music Bass tabs (ver.3)

Muse
Rating:
0/5 (0 votes)

Hard to play? Try these video lessons and learn fast.
                Hyper Music

Muse


Bass tab by nilh 


Intro (ad lib. guitar scr*pping)


Fig. 1:
   H        Q     Q   
|-----------------------|
|-----------------------|
|-----------------------|
|--12--------L\---------|


Fig. 2:
   Q    E.  S E  E  E  E     Q    E.  S E  E  E  E    
|-------------------------|-------------------------|
|-------------------------|-------------------------|
|-------5-----------3--5--|-------5---0-2--3--2--1--|
|--0--------5-3--5--------|--0----------------------|


Fig. 3:
   W                   W                 
|-------------------|-------------------|
|-------------------|-------------------|
|-------------------|-------------------|
|--0----------------|--L----------------|


Fig. 4A:
  E  E  S E  S E  E  S E  S   E  E  S E  S  E   E   S  E   S   E  E  S E  S E  E  S E  S  
|---------------------------|--------------------------------|---------------------------|
|-0--0--x-2--x-3--3--x-5--x-|-7--7--x-9--x-10--10---x-12---x-|-5--5--x-5--x-5--5--x-5--x-|
|---------------------------|--------------------------------|---------------------------|
|---------------------------|--------------------------------|---------------------------|

  E  E  S E  S E  E  S  E   S 
|-----------------------------|
|-5--5--x-7--x-8--8--x-10---x-|
|-----------------------------|
|-----------------------------|


Fig. 4B:
  E  E  S E  S E  E  S E  S   E  E  S E  S  E   E   S  E   S    W                  E  E  E  E  E  E  S S S S
|---------------------------|--------------------------------|-------------------|---------------------------|
|-0--0--x-2--x-3--3--x-5--x-|-7--7--x-9--x-10--10---x-12---x-|--5----------------|---------------------------|
|---------------------------|--------------------------------|-------------------|---------------------------|
|---------------------------|--------------------------------|-------------------|-x—-x--x—-x—-x—-x--x-x-x-x-|




Order:

Fig. 1 x4
Fig. 2 x4
Fig. 3 x1
Fig. 4 x5
Fig. 4B x1
Fig. 1 x4
Fig. 2 x4
Fig. 3 x1
Fig. 4 x3
Fig. 4B x1
Fig. 1 x4
Fig. 2 x8
Fig. 3 x1
            
Hard to play? Try these video lessons and learn fast. | Correct




comments powered by Disqus
↑ Back to top | Tablatures and chords are parodies/interpretations of the original songs. You may use it for private study, scholarship, research or language learning purposes only