» » »

Jamiroquai, Deeper Underground Tabs (ver.1)

Artists:  A B C D E F G H I J K L M N O P Q R S T U V W X Y Z # 

Deeper Underground Tabs (ver.1)

Jamiroquai Tabs
Rating:
1/5 (1 vote)
Deeper Underground lessons Tabs too difficult? Try these video lessons and learn fast
                      Jamiroquai- Deeper Underground

Hey I noticed most of the tabs on here are very brief so I 
sat down and worked out The main things throughout :D Just a
little not the chorus is abit awkward I Suggest you learn that
while listening to the song :D Enjoy...


Intro!

E|------------------------------------------------|
B|------------------------------------------------|
G|------------------------------------------------|     x2
D|-------3-2-------------3-2----------------------|
A|---4--------1------4--------0-------------------|
E|------------------------------------------------|


Verse!

E|------------------------------------------------|
B|-------------------------4----------------------|
G|---------------------------5-4-2----------------|     x8
D|----------------4-2--------------4-2------------|
A|---4-2-4-2--55------44--------------------------|
E|------------------------------------------------|


Chorus!

E|------------------------------------------------|
B|------------------------------------------------|
G|----------------------------------------7-----6-|     x2
D|---------------------------2s4----2-------------|    
A|---4---2-4--2-4--2-4-3--0-------------5-----4---|
E|-------------------------------0----------------|
            

comments powered by Disqus
↑ Back to top | Jamiroquai Tabs for Deeper Underground. Lyrics for acoustic guitar and electric guitar. Tablatures and chords are parodies/interpretations of the original songs. You may use it for private study, scholarship, research or language learning purposes only