» » »

Deeper Underground Bass tabs (ver.3)

Artists:  A B C D E F G H I J K L M N O P Q R S T U V W X Y Z # 

Deeper Underground Bass tabs (ver.3)

Jamiroquai
Rating:
4/5 (2 votes)

Hard to play? Try these video lessons and learn fast.
                ----------------------------------------------------------------------------
			     DEEPER UNDERGROUND - Jamiroquai
-----------------------------------------------------------------------------


Tuning: standard EADG

There already is one bass tab for this but this one seems easier to play:
 MAIN RIFF:  bass comes in @ 00.41
G|---------------------------------------------------------------------------|
D|--------------4-2-----6-4----------------------4-2-----6-4-----------------|
A|--4-0-4-0-5-5-----4-2-----6p4-----4-0-4-0--5-5-----4-2-----6p4----4-0-4-0--|
E|------------------------------6--------------------------------6-----------|

G|--------------------------------------------6------------------------------|
D|----4-2-----6-4--------------------4-2---------6-4-------------------------|
A|5-5-----4-2-----6p4----4-0-4-0-5-5-----4-2---------6-----------------------|
E|--------------------6--------------------------------6---------------------|
 CHORUS   @01.18 "I'm going deeper underground.."
G|---------------------------------------------------------------------------|
D|------------------------4-----2--2-----------------------------------------|
A|-4-0-4-0-4-0-4-0-1/3-0~---------------4------------------------------------|
E|--------------------------0~---4----4--------------------------------------|

chorus repeat x 3
repeat main riff x 8
chorus repeat x 4

BREAK DOWN @2:37 to 3.14

G|------------------3--------------------------------------------------------|
D|---3-2--------3-2----------------------------------------------------------|
A|-4----1-----4--------4-0-4-0-44-4-0-4-0-44-4-0-4-0-44-4-0-4-0-44-----------|
E|---------------------------------------------------------------------------|

repeat main riff x 4
bass rest whilst chorus x 2 then playout to this:

G|------------------------------------------------------------------------------|
D|------------------------4-----2--2--------------------------------------------|
A|-4-0-4-0-4-0-4-0-1/3-0~---------------4---------------------------------------|
E|--------------------------0~---4----4-----------------------------------------|

| /  slide up
| \  slide down
| h  hammer-on
| p  pull-off
| ~  vibrato
| +  harmonic
| x  Mute note
            
Hard to play? Try these video lessons and learn fast. | Correct




comments powered by Disqus
↑ Back to top | Tablatures and chords are parodies/interpretations of the original songs. You may use it for private study, scholarship, research or language learning purposes only