» » »

Jamiroquai, Too Young To Die Tabs (ver.1)

Artists:  A B C D E F G H I J K L M N O P Q R S T U V W X Y Z # 

Too Young To Die Tabs (ver.1)

Jamiroquai Tabs
 Rating:
4/5 (4 votes)
Too Young To Die lessons Tabs too difficult? Try these video lessons and learn fast
1
                
************************************************************************
Verse Chords

   Cmin7			F7                      AbMaj7
|---------|  |---------|  |---------|  |---------|  |---------|
|----8----|  |---(10)--|  |----10---|  |----4----|  |----14---|
|----8----|  |----8----|  |----8----|  |----5----|  |----13---|
|----8----|  |----7----|or|----10---|  |----5----|or|----14---| 
|---------|  |----8----|  |----8----|  |---------|  |----11---|
|----8----|  |---------|  |---------|  |----4----|  |---------|

		      G7
|---------|  |---------|  |---------|
|----3----|  |----12---|  |---(12)--|
|----4----|  |----10---|  |----10---|
|----3----|or|----12---|or|----9----|
|---------|  |----10---|  |----10---|
|----3----|  |---------|  |---------|

Chorus Chords

          Cmin7 			     Dbmin7
|---------|  |---------|  |---------|  |---------|
|----4----|  |----4----|  |----5----|  |----5----|
|----3----|  |----3----|  |----4----|  |----4----|
|----5----|or|----1----|  |----6----|or|----2----|
|----3----|  |----3----|  |----4----|  |----4----|
|---------|  |---------|  |---------|  |---------|

	     Ebmin7
|---------|  |---------|
|----7----|  |----7----|
|----6----|  |----6----|
|----8----|or|----5----|
|----6----|  |----6----|
|---------|  |---------|
************************************************************************

Verse

Cmin7  F7                      AbMaj7   G7
       Every body, don’t want no war.   No no no we’re too 
        Cmin7                            F7
young to die. Too young to die. So many people all around 
    AbMaj7                      G7
the world, yeah. All around the world seen their brothers 
Cmin7                                    F7
fry. I seen your brother fry. What’s the motive? And the 
AbMaj7        G7                             Cmin7              
madness, Oh I wish I knew. You made my people cry. You made  
                    F7                    
my people cry. So politicians, this time, I think you better 
          AbMaj7          G7                          
keep your distance. Say, say it loud, we’re too young to

Chorus
Cmin7       Dbmin7      Ebmin7      Dbmin7
doo doo doo doo dat dat doe dat dat doe doe
Cmin7       Dbmin7      Ebmin7      Dbmin7
doo doo doo doo dat dat doe dat dat doe 
Cmin7       Dbmin7      Ebmin7      Dbmin7
doo doo doo doo dat dat doe dat dat doe doe
Cmin7       Dbmin7      Ebmin7      Dbmin7
doo doo doo doo dat dat doe dat dat doe
            
Submit corrections

comments powered by Disqus
↑ Back to top | Jamiroquai Tabs for Too Young To Die. Lyrics for acoustic guitar and electric guitar. 1 Tablatures and chords are parodies/interpretations of the original songs. You may use it for private study, scholarship, research or language learning purposes only