» » »

Jamiroquai, Corner Of The Earth Bass tabs (ver.1)

Artists:  A B C D E F G H I J K L M N O P Q R S T U V W X Y Z # 

Corner Of The Earth Bass tabs (ver.1)

Jamiroquai Tabs
 Rating:
4/5 (4 votes)
Corner Of The Earth lessons Tabs too difficult? Try these video lessons and learn fast
                Chorus
G-|------------|------------|
D-|----------0-|----------2-|
A-|-1----------|----3--0----|
E-|----1--3----|-1----------|
  
 Verse1                                                                 |-  var. -|
G-|---------------|------------------|------------------|-----------------|-------|
D-|---------------|------------------|------------------|-----------------|-------|
A-|-5--5-----5--5-|---5-6--6---6--6--|-8-6--------------|-----------------|-------|
E-|--------5------|-5----------------|-----6--6---6--6--|-8-6-5--5---5--5-|---5-8-| -1st timw

                                                      E-|         ---5--5-|--5-3-5| -2nd time

                                                      E-|         ---5--3-|5-5-3-5| -3rd time
                                                                
                                                      E-|         ---5--5-|-------| -4th time
 Verse2
G-|---------------|------------------|------------------|-----------------|-------|
D-|---------------|------------------|------------------|-----------------|-------|
A-|-5--5-----5--5-|---5-6--6---6--6--|-8-6--------------|-----------------|-------|
E-|--------5------|-5----------------|-----6--6---6--6--|-8-6-5--5---5--3-|5-5-3-5| -1st time
          
                                                      E-|         ---5--5-|--5-3-5| -2nd time

                                                      E-|         ---5--5-|---5-8-| -3rd time

                                                      E-|          --5--5-|-------| -4th time
            
Submit corrections

comments powered by Disqus
↑ Back to top | Jamiroquai Bass for Corner Of The Earth. Lyrics for acoustic guitar and electric guitar. Tablatures and chords are parodies/interpretations of the original songs. You may use it for private study, scholarship, research or language learning purposes only