» » »

Jamiroquai, Space Cowboy Tabs (ver.1)

Artists:  A B C D E F G H I J K L M N O P Q R S T U V W X Y Z # 

Space Cowboy Tabs (ver.1)

Jamiroquai Tabs
 Rating:
4/5 (4 votes)
Space Cowboy lessons Tabs too difficult? Try these video lessons and learn fast
                
************************************************************************
Intro Chords

   Ebmin9	    Fmin7		Ab11
|---------|  |---------|  |---------|  
|----6----|  |----9----|  |----11---|
|----6----|  |----8----|  |----11---|
|----4----|  |----6----|  |----11---|  
|----6----|  |----8----|  |----11---|  
|---------|  |---------|  |---------|

Verse Chords

   DbMaj7		     Cmin7			BMaj7       Gb6add9
|---------|  |---------|  |---------|  |---------|  |---------|
|----6----|  |----4----|  |----4----|  |----4----|  |----2----|
|----5----|  |----3----|  |----3----|  |----3----|  |----1----|
|----6----|  |----5----|or|----1----|  |----4----|  |----1----|
|----4----|  |----3----|  |----3----|  |----2----|  |---------|
|---------|  |---------|  |---------|  |---------|  |----2----|

    A11	     Gb13              Dbmin7
|---------|  |---------|  |---------|  |---------|  
|----2----|  |----4----|  |----5----|  |----5----|  
|----3----|  |----3----|  |----4----|  |----4----|  
|----4----|  |----2----|  |----6----|or|----2----|  
|---------|  |---------|  |----4----|  |----4----|  
|----4----|  |----2----|  |---------|  |---------|  

Chorus Chords

   Ebmin9	    Fmin9	  Bbmin9 form1     Bbmin9 form2
|---------|  |---------|  |----6----|      |---------|  
|----6----|  |----8----|  |----8----|      |---------|  
|----6----|  |----8----|  |----8----|      |----7----|  
|----4----|  |----6----|  |----8----|      |----8----|  
|----6----|  |----8----|  |---------|      |----6----|  
|---------|  |---------|  |---------|      |----8----|  
************************************************************************

Intro

Ebmin9 Fmin7 Ab11

Verse

             DbMaj7     Cmin7      BMaj7             G6add9
Everything is good, and brown. I’m here again with a sun 
             A11             DbMaj7              Cmin7
shine smile upon my face. My friends are close at hand and 
   BMaj7            G13           A11               Dbmin7
my inhibitions have disappeared without a trace. I’m glad I 
BMaj7 G6add9        A11 
found someone I can rely on.

Chorus

            Ebmin9 Fmin9        Bbmin9 form 1
This is the return of the space cowboy.
     Ebmin9    Fmin9      Bbmin9 form 2       
Interplanetary good vibes on. 
                 Ebmin9    Fmin9         Bbmin9 form 1
Set the speed of cheeba. Oh You and I go deeper. 
                Ebmin9          Fmin9
Maybe I have to get high to get by.
            
Submit corrections

comments powered by Disqus
↑ Back to top | Jamiroquai Tabs for Space Cowboy. Lyrics for acoustic guitar and electric guitar. Tablatures and chords are parodies/interpretations of the original songs. You may use it for private study, scholarship, research or language learning purposes only