» » »

Jamiroquai, Deeper Underground Bass tabs (ver.1)

Artists:  A B C D E F G H I J K L M N O P Q R S T U V W X Y Z # 

Deeper Underground Bass tabs (ver.1)

Jamiroquai Tabs
 Rating:
4/5 (8 votes)
Deeper Underground lessons Tabs too difficult? Try these video lessons and learn fast
                Jamiroquai - Deeper Underground Bass Tab
By Steve Ward

The chorus is right but there are a few more notes in it that
i can't figure out but e-mail me if you need me to correct =D

VERSE


G|----------------------------------------|
D|----------------------------------------|
A|------------------8/9-7------11-9-7-----|
E|--9--7-9-7-10-10--------9-9---------9-7-| x3

G|----------------------------------------|
D|-----------------------------11---------|
A|------------------8/9-7---------9-7---7-|
E|--9--7-9-7-10-10--------9-9---------9---| x1

G|----------------------------------------|
D|----------------------------------------|
A|------------------8/9-7------11-9-7-----|
E|--9--7-9-7-10-10--------9-9---------9-7-| x3

G|----------------------------------------|
D|-----------------------------11---------|
A|------------------8/9-7---------9-7---7-|
E|--9--7-9-7-10-10--------9-9---------9---| x1

CHORUS/OUTRO

G|----------------------|
D|----------------------|
A|-------------9-7------|
E|--9-----9-5-------7--9|

Thanks for playing =D
            
Submit corrections

comments powered by Disqus
↑ Back to top | Jamiroquai Bass for Deeper Underground. Lyrics for acoustic guitar and electric guitar. Tablatures and chords are parodies/interpretations of the original songs. You may use it for private study, scholarship, research or language learning purposes only