» » »

Jamiroquai, Deeper Underground Bass tabs (ver.2)

Artists:  A B C D E F G H I J K L M N O P Q R S T U V W X Y Z # 

Deeper Underground Bass tabs (ver.2)

Jamiroquai Tabs
 Rating:
3.4/5 (9 votes)
Deeper Underground lessons Tabs too difficult? Try these video lessons and learn fast
                ----------------------
Jamiroquai
Deeper Underground
----------------------

h=hammer-on   p=pull-off    /=slide-up    \=slide down
~=vibrato

   Bass organ Intro (w/distortion) (Slow)
G-|--------------------|--------------------|--------------------|
D-|--------------------|--------------------|--------------------|
A-|-------8----7-------|-------8----7-------|-------8----7-------|
E-|--9--------------6--|--9--------------6--|--9--------------6--|


|--------------------|
|--------------------|
|-------8----7-------|
|--9--------------6--|

 MainLine Fig.1 (all w/distortion)
|----------------------|--------------------|--------------------|
|----------------------|--------------------|--------------------|
|----------------------|--7/9--6h7p6--------|--9/10--7/9--7------|
|--7h9--7h9--7--10-10--|--------------9--9--|---------------9-7--|

 Fig.2
|----------------------|--------------------|--------------------|
|----------------------|--------------------|--------------------|
|----------------------|--7/9--6h7p6--------|--9/10--7/9--7------|
|--7h9--7h9-7--10-10-0-|--------------9--9--|---------------9-7--|
         *
 Fig.3
|----------------------|--------------------|--------------------|
|----------------------|--------------------|--6/7---------------|
|----------------------|--7/9--6h7p6--------|-------7/9---7------|
|--7h9--7h9--7--10-10--|--------------9--9--|---------------9-7--|
                   *
 Fig.4
|----------------------|--------------------|---------------------|
|----------------------|--------------------|---------------------|
|----------------------|--7/9--6h7p6--------|-------7h9-p7--------|
|--7h9--7h9--7--10-10--|--------------9--9--|--6h7----------9--7--|
                   *
 Fig.5
|----------------------|--------------------|---------------------|
|----------------------|--------------------|--6/7-\6-------------|
|----------------------|--7-7/9-6h7p6-------|----------9p7--------|
|--7h9--7h9--7--10-10--|--------------9--9--|---------------9--7--|
          *          *
 Fig.6
|----------------------|--------------------|---------------------|
|----------------------|--------------------|--7------------------|
|----------------------|--7/9--6h7p6--------|-----9--7/9-p7-------|
|--7h9--7h9-7--10-10-0-|--------------9--9--|---------------9--7--|
                     *                         *
  Chorus (w/distortion)
||----------------------|--------------------|-------------7-----6--|
||----------------------|--------------------|-----2----------------|
||----------------------|---------------/9---|----------5-----4-----|
||--9~---9--9~---9--9~--|--8~----5-----------|--0-------------------|


|----------------------|--------------------|-------------7-----6--|
|----------------------|----------------/4--|-----2----------------|
|--4~---4--4~---4--4~--|--3~----0-----------|----------5-----4-----|
|----------------------|--------------------|--0-------------------|


|----------------------|--------------------|-------------7-----6--||
|----------------------|----------------/4--|-----2----------------||
|--4~---4--4~---4--4~--|--3~----0-----------|----------5-----4-----||
|----------------------|--------------------|--0-------------------||

 Interlude (w/distortion) (slow and with a light touch)
|--------------------|--------------------|
|-------3----2-------|-------3----2-------|
|--4--------------1--|--4--------------1--|
|--------------------|--------------------|

 ...then clean (w/o distortion)
|----------------------|------------------|---------------------|
|----------------------|------------------|---------------------|
|----------------------|--9----7----------|--7/9--7/9--7--------|
|--9----9----7--10-10--|------------9--9--|---------------9--7--|


|----------------------|------------------|---------------------|
|----------------------|------------------|---------------------|
|----------------------|--9----7----------|--7/9--7/9--7--------|
|--9----9----7--10-10--|------------9--9--|---------------9--7--|


|----------------------|------------------|---------------------|
|----------------------|------------------|---------------------|
|----------------------|--9----7----------|--7/9--7/9--7--------|
|--9----9----7--10-10--|------------9--9--|---------------9--7--|


|----------------------|------------------|---------------------|
|----------------------|------------------|---------------------|
|----------------------|--9--6h7p6--------|---------------------|
|--9----9--7--10-10-0--|------------9--9--|---------------------|
        *

SONG STRUCTURE
--------------
Intro
Fig.1   ( x2 )
Fig.2
Fig.3
Fig.1   ( x3 )
Fig.3
Chorus
Fig.1   ( x2 )
Fig.2
Fig.3
Fig.1
Fig.4
Fig.2
Fig.1
Chorus
Interlude
Fig.1
Fig.5
Fig.1
Fig.6
Chorus (repeat till end)
            
Submit corrections

comments powered by Disqus
↑ Back to top | Jamiroquai Bass for Deeper Underground. Lyrics for acoustic guitar and electric guitar. Tablatures and chords are parodies/interpretations of the original songs. You may use it for private study, scholarship, research or language learning purposes only