» » »

Jamiroquai, When You Gonna Learn Tabs (ver.1)

Artists:  A B C D E F G H I J K L M N O P Q R S T U V W X Y Z # 

When You Gonna Learn Tabs (ver.1)

Jamiroquai Tabs
Rating:
0/5 (0 votes)
When You Gonna Learn lessons Tabs too difficult? Try these video lessons and learn fast
                
************************************************************************
Verse Chords

   Cmin7       Fmin9       Dmin7        DbMaj7
|---------| |---------| |----------| |----------|
|----8----| |----8----| |----10----| |----9-----|
|----8----| |----8----| |----10----| |----10----|
|----8----| |----6----| |----10----| |----10----|
|---------| |----8----| |----------| |----------|
|----8----| |---------| |----10----| |----9-----|

Chorus Chords

	     Cmin7				 Dmin7
|---------|  |---------|  |---------|  |---------|
|----4----|  |----4----|  |----6----|  |----6----|
|----3----|  |----3----|  |----5----|  |----5----|
|----5----|or|----1----|  |----7----|or|----3----|
|----3----|  |----3----|  |----5----|  |----5----|
|---------|  |---------|  |---------|  |---------|

   DbMaj7     DbMaj9/Ab 
|---------|  |----4----|
|----6----|  |----4----|
|----5----|  |----5----|
|----6----|  |----6----|
|----4----|  |---------|
|---------|  |----4----|
************************************************************************

Verse

Cmin7                          Fmin9                     Dmin7
Yeah, yeah, have you heard the news today?  People right across the  
                              DbMaj7                       Cmin7  
world are pledging they won't play the game.  Victims of a modern world, 
                 Fmin9                          Dmin7                        
circumstance has brought us here.  Armageddon's come too near, too too 
DbMaj7                     Cmin7                           Fmin9
near now. Far sight is the only key to save our children's destiny. The 
             Dmin7               DbMaj7                        Cmin7
consequences are so grave, so so grave now. The hypocrites, we are their 
                         Fmin9                        Dmin7
slaves. So my friends to stop that end, on each other we depend, 
    DbMaj7   
Oh, we depend.

Chorus
Cmin7 Dmin7             DbMaj7 
      Mountain high and river deep
Cmin7 DbMaj7        DbMaj9/Ab      
      Stop it goin’ on
Cmin7         Dmin7              DbMaj7
     We gotta wake this world up from its sleep.
    Cmin7 DbMaj7        DbMaj9/Ab      
Aww pepole, stop it goin on.
            

comments powered by Disqus
↑ Back to top | Jamiroquai Tabs for When You Gonna Learn. Lyrics for acoustic guitar and electric guitar. Tablatures and chords are parodies/interpretations of the original songs. You may use it for private study, scholarship, research or language learning purposes only