» » »

Incubus, Redefine Tabs (ver.3)

Artists:  A B C D E F G H I J K L M N O P Q R S T U V W X Y Z # 

Redefine Tabs (ver.3)

Incubus Tabs
 Rating:
4/5 (4 votes)
Redefine lessons Tabs too difficult? Try these video lessons and learn fast
1
                
	TUNING: drop d (D,A,D,G,B,E)


     INTRO:

    E|---------------------------------------------------|
    B|---------------------------------------------------|
    G|---------------------------------------------------|
    D|---------------------------------------------------|
    A|--------------------------2-0----------------------|
    D|--0-4-0-4-0-4-0-4-0-4-0-4-----0-4-0-4-0-4-0-4-0-4--|
      pm...............................................

     2ND PART OF INTRO:

     Play this once      

    E|-------------------|
    B|-------------------|
    G|-------------------|
    D|--0-0-0-0-3-3-3-3--|
    A|--0-0-0-0-3-3-3-3--|
    D|--0-0-0-0-3-3-3-3--|
      pm.......

     Then play this four times

    E|-------------------------------|
    B|-------------------------------|
    G|-----------------------6-------|
    D|-0-4-4-0-4-4-4-4-0-4-0-6-4-0-4-|
    A|-0-4-4-0-4-4-4-4-0-4-0-4-4-0-4-|
    D|-0-4-4-0-4-4-4-4-0-4-0---4-0-4-|

     VERSE: (with flanger)

    E|-------------------------------------------------|
    B|--15--15--15--15--12-12-12--9--9-9-9-10----------|
    G|------------------12-12-12--9--9-9-9-10----------|
    D|-------------------------------------------------|
    A|-------------------------------------------------|
    D|-------------------------------------------------|

     CHORUS:

     Play this once      

    E|-------------------|
    B|-------------------|
    G|-------------------|
    D|--0-0-0-0-3-3-3-3--|
    A|--0-0-0-0-3-3-3-3--|
    D|--0-0-0-0-3-3-3-3--|
      pm.......

     Then play this four times

    E|-------------------------------|
    B|-------------------------------|
    G|-----------------------6-------|
    D|-0-4-4-0-4-4-4-4-0-4-0-6-4-0-4-|
    A|-0-4-4-0-4-4-4-4-0-4-0-4-4-0-4-|
    D|-0-4-4-0-4-4-4-4-0-4-0---4-0-4-|

     INTERLUDE: (after bass solo)
     
    E|-------------------------------------------------|
    B|-------------------------------------------------|
    G|-------------------------------------------------|
    D|-----6----6---------------//5--------------------|
    A|-------------------------------------------------|
    D|-------------------------------------------------|
            
Submit corrections

comments powered by Disqus
↑ Back to top | Incubus Tabs for Redefine. Lyrics for acoustic guitar and electric guitar. 1 Tablatures and chords are parodies/interpretations of the original songs. You may use it for private study, scholarship, research or language learning purposes only