>
 >
Redefine

Redefine Guitar Tabs

Incubus - Redefine chords, tabs, tablatures, lyrics

Guitar lessons | Add/correct | Request | Top 50 tabs Artists:  A B C D E F G H I J K L M N O P Q R S T U V W X Y Z 0-9

Redefine Guitar Tabs – Incubus

CD, Sheet music, Poster

Do you like Redefine? Share with your friends now
Bass TabsDrum TabsTabsTabs v2Tabs v3Tabs v4

Drop D

p.m.     : palm mute
h        : hammer on
( )      : Im not sure about this note

Hiiiiii lovers of Incubus, this is a very cool tab of redefine


INTRO: (with distortion)

e|--------------------------------------------------------------------
B|--------------------------------------------------------------------
G|--------------------------------------------------------------------
D|--------------------------------------------------------------------
A|-------------------------5-------------------------------3----------
E|-0-4-0-4-0-4-0-4-0-4-0-4---4-0-4-0-4-0-4-0-4-0-4-0-4-0-4---4-0-4-0-4    p.m................................................................

e|--------------------------------------------------------------------
B|--------------------------------------------------------------------
G|--------------------------------------------------------------------
D|---------------------------------------------0-0-0-0-3-3-3-3--------
A|---------------------0-----------------------0-0-0-0-3-3-3-3--------
E|-0-4-0-4-0-4-0-4-0-4---4-0-4-0-4-0-4-0-4-0-4-0-0-0-0-3-3-3-3--------
  p.m................................................. . . . .



Then, the CHORUS part: (with distortion)

e|--------------------------------------------------------------------
B|--------------------------------------------------------------------
G|--------------------------------------------------------------------
D|--------------------------------------------------------------------
A|---4--4---4--4---4---4-3-4---4---4--4---4--4---4---4-3-4---4---4--4-
E|-0-4--4-0-4--4-0-4-0-4---4-0-4-0-4--4-0-4--4-0-4-0-4---4-0-4-0-4--4-

e|------------------------------------------------------
B|------------------------------------------------------
G|------------------------------------------------------
D|--------------------------------------0-0-0-0-3-3-3-3-
A|---4--4---4---4-3-4---4---4--4---4--4-0-0-0-0-3-3-3-3-
E|-0-4--4-0-4-0-4---4-0-4-0-4--4-0-4--4-0-0-0-0-3-3-3-3-
                                        p.m.... . . . .

Repeat this part, but at the end the palm muted chords are replaced by
this:

e|--5-----
B|--4-----
G|--2h3---
D|--x-----
A|--0-----
E|--0-----

VERSE:(with wah-wah anda maybe another effect)

e|10----8--8--8-8---------10---10---8--8--8----------5---10----8--8--8
B|------7--7--7---------------------7--7--7----------4---------7--7--7
G|-7------------------7----7----7------------7---(7)-3----7-----------
D|-----------------6---------------------------6----(0)---------------
A|--------------------------------------------------(0)---------------
E|--------------------------------------------------------------------

e|-8----------10----8--8--(8)----------   ----------------------------
B|-7----------------7--7--(7)----------   ----------------------------
G|-------7-----7-------------------7---   ----------------------------
D|----6-------------------------6------   -0-0-0-0-3-3-3-3------------
A|-------------------------------------   -0-0-0-0-3-3-3-3------------
E|-------------------------------------   -0-0-0-0-3-3-3-3------------
                                          p.m...... . . . .
                                          (with distorition)

CHORUS: (the same as above)


VERSE 2:




e|-10---8--8--8--8--------10----8--8--8-------------------10---10--8--
B|------7--7--7--7---------7----7--7--7----------10--11------------7--
G|--7-----------------7----7-------------7---(7)------9----7----7-----
D|------------------6----------------------6---------(8)--------------
A|--------------------------------------------------------------------
E|--------------------------------------------------------------------

e|-8--8-8-------10----8--8--8--8------   -----------------------------
B|-7--7-7-------------7--7--7--7------   -----------------------------
G|----------7----7------------------7-   -----------------------------
D|--------6-----------------------6---   -0-0-0-0-3-3-3-3-------------
A|------------------------------------   -0-0-0-0-3-3-3-3-------------
E|------------------------------------   -0-0-0-0-3-3-3-3-------------
                                         p.m...... . . . .
                                         (with distortion)


CHORUS: (this chorus ends again in e|---------------- instead of e|-5-- 
				   B|----------------	         B|-4--
                                   G|----------------            G|-2h3
                                   D|-0-0-0-0-3-3-3-3            D|-x--
                                   A|-0-0-0-0-3-3-3-3            A|-0--
                                   E|-0-0-0-0-3-3-3-3            E|-0-- 
                                    p.m...... . . . . 
                           

BRIDGE: first, guitar plays nothing, then plays this (similar to intro)

e|--------------------------------------------------------------------
B|--------------------------------------------------------------------
G|--------------------------------------------------------------------
D|--------------------------------------------------------------------
A|-------------------------5-------------------------------5----------
E|-0-4-0-4-0-4-0-4-0-4-0-4---4-0-4-0-4-0-4-0-4-0-4-0-4-0-4---4-0-4-0-4
p.m...................................................................

e|--------------------------------------------------------------------
B|--------------------------------------------------------------------
G|--------------------------------------------------------------------
D|--------------------------------------------------------------------
A|---------------------3-------------------------------0--------------
E|-0-4-0-4-0-4-0-4-0-4---4-0-4-0-4-0-4-0-4-0-4-0-4-0-4---4-0-4-0-4-0-4
p.m...................................................................

e|-----------------------------------------
B|-----------------------------------------
G|-----------------------------------------
D|---------0-0-0-0-0-0-0-0-3-3-3-3-3-3-3-3-
A|---------0-0-0-0-0-0-0-0-3-3-3-3-3-3-3-3-
E|-0-4-0-4-0-0-0-0-0-0-0-0-3-3-3-3-3-3-3-3-
p.m........................ . . . . . . . .



CHORUS: (x3)



end in 

e|-------
B|-------
G|-------
D|-0-0-0-
A|-0-0-0-
E|-0-0-0-
p.m.....





Comments


Popular Incubus tabs & chords
Calgone 1 Bass Tabs
Diamonds And Coal Bass Tabs
Nice To Know You 4 Bass Tabs
Deep Inside Tabs
Mexico Song Tabs
Stellar - 3 Tabs
Stellar 1 Tabs
Stellar 3 Tabs
You Will Be A Hot Dancer Tabs
Quicksand Ukulele


Song lyrics



↑ Back to top | Tablatures and chords are parodies/interpretations of the original songs. You may use it for private study, scholarship, research or language learning purposes only
© 2014 AZChords.com Contact us | Privacy policy | DMCA | Add/correct tabs | Request tabs | Top 50 tabs