» » »

Incubus, Are You In? Bass tabs (ver.1)

Artists:  A B C D E F G H I J K L M N O P Q R S T U V W X Y Z # 

Are You In? Bass tabs (ver.1)

Incubus Tabs
 Rating:
4/5 (4 votes)
Are You In? lessons Tabs too difficult? Try these video lessons and learn fast
                Bassist: Dirk Lance
Tuning: Standard - EADG

Intro
G]-14/16-|-------|-14h16p14---| <-- If your action is quite high
D]-14/16-|-------|---------16-|     you may want to play all these
A]-------|-14----|------------|     notes rather than hammering
E]-------|---14\-|------------|
     A       B          C

Play it: AAB AAB AC


Verse
G]----------------|-----2---4p2-|------------|
D]----------------|--4-2-(2)----|------------|
A]-5--5-2-0--2----|-------------|-2-2-0-0-2--|
E]------------0-2-|-2-2---------|----------0-|
    Main Part        Ending 1      Ending 2

Chorus
G]-----------------------------------------------------------------|
D]-------------------------------------------------------------0h2-|
A]-5-5-5-5--------------------------5-5-5-5-----------------0h2----|
E]---------5-5-5-5-2-2-2-2-2-2-2-2----------5-5-5-5-2-2-2-2--------|
                                                            \_____/
    I play these as hammers but they may as well be individual notes
          
Bridge
G]-------------------|
D]--------5---7------|
A]-------7---9--10-7-|
E]-3-0--7---7--7-----|

After the bridge there is a fill
G]-14h16p14---|
D]---------16-|
A]------------|
E]------------|
            
Submit corrections

comments powered by Disqus
↑ Back to top | Incubus Bass for Are You In?. Lyrics for acoustic guitar and electric guitar. Tablatures and chords are parodies/interpretations of the original songs. You may use it for private study, scholarship, research or language learning purposes only