» » »

Pardon Me Tabs (ver.1)

Artists:  A B C D E F G H I J K L M N O P Q R S T U V W X Y Z # 

Pardon Me Tabs (ver.1)

Incubus
Rating:
0/5 (0 votes)

Hard to play? Try these video lessons and learn fast.
                PROPS GO TO: casey anderson

Intro
download the song to get the speed.
E|---------------------------------|---------------------------0-----|(X2)
B|---------0---------------0-------|---------0-----------------0-----|
G|-----4-----4---4-----4-----4---4-|-----4-----4---4-----4-----4-----|
D|---2---2-----2-----2---2-----2---|---2---2-----2-----2---2---2-----|
A|-4---------------0---------------|-4---------------0---------4-----|
E|---------------------------------|---------------------------------|
   if you dont already know bar the 4th fret for this part.                             

E|-4---4---4-----4---0-0---0-------|-4---4---4-------0-0---0---------|
B|-4---4---4-----4---0-0---0-------|-4---4---4-------0-0---0---------|
G|-6---6---6-----6---2-2---2-------|-6---6---6-------2-2---1---------|
D|-6---6---6-----6---2-2---2-------|-6---6---6-------2-2---2---------|
A|-4---4---4-----4---0-0---0-------|-4---4---4-------0-0---2---------|
E|---------------------------------|-----------------------1---------|

E|-4-------4-----4---0-0---0-------|-4-------4-----------------------|
B|-4-------4-----4---0-0---0-------|-4-------4-------5-5-------------|
G|-6-------6-----6---2-2---2-------|-6-------6-------4-4---4-4---2---|
D|-6-------6-----6---2-2---2-------|-6-------6-------2-2---4-4---2---|
A|-4-------4-----4---0-0---0-------|-4-------4-------------2-2---0---|
E|---------------------------------|---------------------------------|

Verse

E|-------2---------------2---------|---------------------------------|
B|-------0---------------0---------|-------2-2-2---------2-2-2-------|
G|-1-----------1---------1---------|-------0-0-0---------0-0-0-------|
D|-----------------2-----------2---|-1-----------1---1-----------1---|
A|---------------------------------|---------------------------------|
E|---------------------------------|---------------------------------|

A Decade ago, never thought I would be, at twenty-three, on the verge
of spontaneous combustion, woe-is-me.

E|-------0-0-----------------------|-------0-0-0---------0-0-0-------|
B|-------4-4-------------4-4-------|-------3-3-3---------3-3-3-------|
G|-----------------------3-3-------|-------2-2-2---------2-2-2-------|
D|-----------------------4-4-------|-0-----------0---0-----------0---|
A|-4-----------4---2-----------2---|---------------------------------|
E|---------------------------------|---------------------------------|

But I guess that it comes with the territory; an ominous landscape of
neverending calamity.

E|-------0-0-------------4-4-------|-----4-4-4-----------4-4-4-------|
B|-------0-0-------------4-4-------|-----4-4-4-----------4-4-4-------|
G|-----7-----------------4-4-------|-----4-4-4-----------4-4-4-------|
D|---6-------------------6-6-------|-2-----------2---2-----------2---|
A|-5-----------4---------6-6-------|---------------------------------|
E|-----------------4-----4-4---4---|---------------------------------|

I need you to hear, I need you to see that I have had all I can take
and exploding seems like a definite

E|-----------------------0-0---0---|-0-------0-----0-----0---0-0---4-|
B|-----7-7---------------0-0---0---|-0-------0-----0-----0---0-0---4-|
G|-----6-6-------------4-------4---|-2-------2-----2-----2---2-2---6-|
D|-----8-8-----------4---------4---|-2-------2-----2-----2---2-2---6-|
A|-6-----------6---2-----------2---|-0-------0-----0-----0---0-0---4-|
E|---------------------------------|---------------------------------|

possibility to me.

Chorus
this is exactly like mike plays it plays the chorus, i downloaded it and put it in slow mo.
E|---4-4---4-----2---2-2-2---0-0-0-|---0-0---0---------------------4-|
B|---4-4---4-----2---2-2-2---0-0-0-|---0-0---0---------------------4-|
G|---6-6---6-----4---4-4-4---0-0-0-|---2-2---2---------------------6-|
D|---6-6---6-----4---4-4-4---2-2-2-|---2-2---2-----4-2-----4-2-2---6-|
A|---4-4---4-----2---2-2-2---2-2-2-|---0-0---0-----4-2-----4-2-2---4-|
E|---------------------------1-1-1-|---------------2-0-----2-0-0-----|

So pardon me while I burst into flames.

E|---4-4---4-----2---2-2-2---0-0-0-|---0-0---0---------------------4-|
B|---4-4---4-----2---2-2-2---0-0-0-|---0-0---0---------------------4-|
G|---6-6---6-----4---4-4-4---0-0-0-|---2-2---2---------------------6-|
D|---6-6---6-----4---4-4-4---2-2-2-|---2-2---2-----4-2-----4-2-2---6-|
A|---4-4---4-----2---2-2-2---2-2-2-|---0-0---0-----4-2-----4-2-2---4-|
E|---------------------------1-1-1-|---------------2-0-----2-0-0-----|

I've had enough of the world and its people's mindless games.

E|---4-4---4-----0---0-0-----2-2-2-|---2-2---2---------------------4-|
B|---4-4---4-----0---0-0-----2-2-2-|---2-2---2---------------------6-|
G|---6-6---6-----2---2-2-----4-4-4-|---4-4---4---------------------6-|
D|---6-6---6-----2---2-2-----4-4-4-|---4-4---4-----4-2-----4-2-2---4-|
A|---4-4---4-----0---0-0-----2-2-2-|---2-2---2-----4-2-----4-2-2---4-|
E|---------------------------------|---------------2-0-----2-0-0-----|

So pardon me while I burn and rise above the flames.

E|---4-4---4-----0---0-0-----2-2-2-|---2-2---2-----2-2-----2-2-2-2---|
B|---4-4---4-----0---0-0-----2-2-2-|---2-2---2-----2-2-----2-2-2-2---|
G|---6-6---6-----2---2-2-----4-4-4-|---4-4---4-----4-4-----4-4-4-4---|
D|---6-6---6-----2---2-2-----4-4-4-|---4-4---4-----4-4-----4-4-4-4---|
A|---4-4---4-----0---0-0-----2-2-2-|---2-2---2-----2-2-----2-2-2-2---|
E|---------------------------------|---------------------------------|

Pardon me, pardon me... I'll never be the same.

Bridge 1

E|-4-4-------------0-0-------------|---------------------------------|
B|-4-4-------------0-0-------------|---------------------------------|
G|-6-6-------------2-2-------------|---------------------------------|
D|-6-6-------------2-2-------------|-6-6-------------2-2-------------|
A|-4-4-------------0-0-------------|-6-6-------------2-2-------------|
E|---------------------------------|-4-4-------------0-0-------------|

(Play Verse)

Not two days ago I was having a look in a book,
and I saw a picture of a guy fried up above his knees.
I guess I can relate, cause lately I've been thinking of combustication
as a welcomed vacation from the burdens of the planet Earth,
like gravity, hypocrisy and the perils of being in 3-D,
and thinking so much differently.

(Play Chorus)

So pardon me while I burst into flames.
I've had enough of the world and its people's mindless games.
So pardon me while I burn and rise above the flames.
Pardon me, pardon me... I'll never be the same.

Bridge 2

E|---------------------------------|-------------------------0-------|
B|---------0---------------0-------|---------0---------------0-------|
G|-----4-----4---4-----4-----4---4-|-----4-----4---4-----4---4-------|
D|---2---2-----2-----2---2-----2---|---2---2-----2-----2---2-2-------|
A|-4---------------0---------------|-4---------------0-------4-------|
E|---------------------------------|---------------------------------|
                                                                 (3x)

Never be the same...
Pardon me while I burst into flames.

E|---------------------------------|-------------------------0-----0-|
B|---------0---------------0-------|---------0-----------------4-----|
G|-----4-----4---4-----4-----4---4-|-----4-----4---4-----4-------4---|
D|---2---2-----2-----2---2-----2---|---2---2-----2-----2---2---------|
A|-4---------------0---------------|-4---------------0---------------|
E|---------------------------------|---------------------------------|

Pardon me, pardon me, pardon me...

E|-----0-----0---4-|                         Alternately, instead of
B|-4-----4-----4-4-|                                 (E) 0      0
G|---4-----4-----6-| <-- 2/4 measure!        playing (B) 4, try 0.
D|---------------6-|                                 (G) 4      6
A|---------------4-|
E|-----------------|

(Play Chorus)

So pardon me while I burst into flames.
I've had enough of the world and its people's mindless games.
So pardon me while I burn and rise above the flames.
Pardon me, pardon me... I'll never be the same.

E|-4-------4-----4---0-0---0-------|-4-------4-------0-0---0---------|
B|-4-------4-----4---0-0---0-------|-4-------4-------0-0---0---------|
G|-6-------6-----6---2-2---2-------|-6-------6-------2-2---4---------|
D|-6-------6-----6---2-2---2-------|-6-------6-------2-2---2---------|
A|-4-------4-----4---0-0---0-------|-4-------4-------0-0---2---------|
E|---------------------------------|-----------------------0---------|

Never be the same, yeah

E|-4-------4-----4---0-0---0-------|-4-------4-------0-0---0---------|
B|-4-------4-----4---0-0---0-------|-4-------4-------0-0---0---------|
G|-6-------6-----6---2-2---2-------|-6-------6-------2-2---4---------|
D|-6-------6-----6---2-2---2-------|-6-------6-------2-2---2---------|
A|-4-------4-----4---0-0---0-------|-4-------4-------0-0---2---------|
E|---------------------------------|-----------------------0---------|
hope you enjoy this tab its just hw mike plays it
            
Hard to play? Try these video lessons and learn fast. | Correct




comments powered by Disqus
↑ Back to top | Tablatures and chords are parodies/interpretations of the original songs. You may use it for private study, scholarship, research or language learning purposes only