» » »

Incubus, Stellar Tabs (ver.1)

Artists:  A B C D E F G H I J K L M N O P Q R S T U V W X Y Z # 

Stellar Tabs (ver.1)

Incubus Tabs
 Rating:
4/5 (4 votes)
Stellar lessons Tabs too difficult? Try these video lessons and learn fast
                PROPS GO TO: casey anderson

verse

e---------------------------------]
B---------------------------------]
G----9/11-11b/6-6b----------------]
D--9-9/11-11b/6-6b-6-----6-6-6-7--]
A-0------------------4-4----5-----]
E---------------------------------] (last part of verse before pre chorus)
                                   e---------------------------------]
                                   B---------------------------------]
                                   G----9/11-11b/6-6b----------------]
                                   D----9/11-11b/6-6b-6-----6-6-6-7--]
                                   A--------------------4-4----5-----]
                                   E---------------------------------]



Pre chorus

e--------------------------]
B--------------------------]
G-7-7-7-7-7-7-4-4-4-4-4-4--]
D-7-7-7-7-7-7-4-4-4-4-4-4--]
A-5-5-5-5-5-5-2-2-2-2-2-2--]
E-5-5-5-5-5-5-2-2-2-2-2-2--]

Chorus

e-----------------------]
B-----------------------]
G--2-2-2----------------]play 2 times
D--2-2-2----6-6---6-7---]
A--0-0-0-4-4---7-7------]
E-----------------------]
play this now
e----------------------------------------]
B----------------------------------------]
G-4--9/11-11------------------9/6-6b-----]x2
D----9/11-11b---------------9-9/6-6b-----]
A-------------------------0--------------]
E----------------------------------------]

then play verse
then play chorus with this 
e------------------------]
B------------------------]
G2-2-2-2-2---------------]
D2-2-2-2-2----6-6---6-7--]
A0-0-4-0-0-4-4---7-7-----]
E------------------------]
(make me feel like i do______)
then play



Bridge (aproxamently at 2:10)

e----------------------------------------------0-]
B----------------------------------------------0-]
G----------------------------------------------4-]
D---0-0-----0-0-----0-0----2-2-----2-2-----7---7-]
A--7---7---7---7---5--5---2---2---2---2---5--5---]
E-5-----5-5-----5-3---3--0-----0-0-----0-3-------]

corected by me CASEY ANDERSON.
            
Submit corrections

comments powered by Disqus
↑ Back to top | Incubus Tabs for Stellar. Lyrics for acoustic guitar and electric guitar. Tablatures and chords are parodies/interpretations of the original songs. You may use it for private study, scholarship, research or language learning purposes only