» » »

Aqueous Transmission Tabs (ver.1)

Artists:  A B C D E F G H I J K L M N O P Q R S T U V W X Y Z # 

Aqueous Transmission Tabs (ver.1)

Incubus
Rating:
0/5 (0 votes)

Hard to play? Try these video lessons and learn fast.
                PROPS GO TO: The Nic man

This song has a really cool feel about it!

Drop D tuning
D-A-D-G-B-E

B-Bend note 1/2 step

The song is played by a Japanese Koto, this version is how it would be played on guitar

E---------------------------|
B--------10-----------------|
G-----------11--------------|
D------9------------9B---7--|
A----0-------------0--------|
D--0--------------0---------|

E---------------------------|
B----0---0---------0---0----|
G------2-------------2------|
D--2-------2----------------|
A----------------2-------2--|      Both phrases repeated throughout the song
D---------------------------|

This is 100% right!
That's it, pretty easy once you've got it down!
            
Hard to play? Try these video lessons and learn fast. | Correct




comments powered by Disqus
↑ Back to top | Tablatures and chords are parodies/interpretations of the original songs. You may use it for private study, scholarship, research or language learning purposes only