» » »

I Miss You Tabs (ver.1)

Artists:  A B C D E F G H I J K L M N O P Q R S T U V W X Y Z # 

I Miss You Tabs (ver.1)

Incubus
Rating:
0/5 (0 votes)

Hard to play? Try these video lessons and learn fast.
                PROPS GO TO: Brandon Behymer

Incubus "I Miss You"
  the only reason i put this on here is because no one else put the guitar
tabs for this song and it is a great song.  they have drum tabs on it but
not guitar. 
Tuning: Drop your low E to D.  Every other string is standard tuning
H=Natural Harmonics
x11                       12th time
e[------------------------][----------------------]
B[------------------------][----------------------]
G[------------------------][----------------------]
D[-----0-----------0---0H5][-----0-----------0---0]
A[---4---4---4---4---4----][---4---4---4---4---4--]
D[-0-------0---5----------][-0-------0---5--------]

Chorus
[-------------][------------][---0---0---0-0----]
[------0------][------------][---3---3---3-3----]
[--------0----][----------7-][---2---2---2-2----]
[---4------4--][-----5----7-][-0-0-0-0-0-0-0-0--]
[-2----------0][---5---5--5-][-0-0-0-0-0-0-0-0--]
[-------------][-5--------5-][-0-0-0-0-0-0-0-0--]


[-------------][------------][---12---12---12-12-]
[------0------][------------][---15---15---15-15-]
[--------0----][----------7-][---14---14---14-14-]
[---4------4--][-----5----7-][-0-12-0-12-0-12-12-]
[-2----------0][---5---5--5-][-0-12-0-12-0-12-12-]
[-------------][-5--------5-][-0-12-0-12-0-12-12-]


[-------------][------------][---------------]
[------0------][------------][---------------]
[--------0----][----------7-][-------7-7-7-7-]
[---4------4--][-----5----7-][-0-0-0-9-9-9-9-]
[-2----------0][---5---5--5-][-0-0-0-9-9-9-9-]
[-------------][-5--------5-][-0-0-0-9-9-9-9-]


[---------------][-------------------]
[-0-0-0-0-0-0-0-][-------------------]
[-0-0-0-0-0-0-0-][-------------------]
[-0-0-0-0-0-0-0-][-7-7-7-7-7-7-7-7-7-]
[-5-5-5-5-5-5-5-][-5-5-5-5-5-5-5-5-5-]
[-5-5-5-5-5-5-5-][-5-5-5-5-5-5-5-5-5-]
            
Hard to play? Try these video lessons and learn fast. | Correct




comments powered by Disqus
↑ Back to top | Tablatures and chords are parodies/interpretations of the original songs. You may use it for private study, scholarship, research or language learning purposes only