» » »

Incubus, Redefine Tabs (ver.2)

Artists:  A B C D E F G H I J K L M N O P Q R S T U V W X Y Z # 

Redefine Tabs (ver.2)

Incubus Tabs
 Rating:
4/5 (4 votes)
Redefine lessons Tabs too difficult? Try these video lessons and learn fast
1
                	      (IncubusMikeEnzngr02)
 Ive made a few changes to the other tab on here and this one is more correct and is easier than the other one but its right just beleive in me...haha have fun
          TUNING: drop D (D,a,d,g,b,e)

      Intro: no hammer on except for the one that is noted
         
   build this part up so you can break out in the chorus part but
   slightly moving the volume up up on the guitar or palm muting
    E|---------------------------------------------------|
    B|---------------------------------------------------|
    G|---------------------------------------------------|
    D|---------------------------------------------------|
    A|--------------------------3------------------------|
    D|--0-4-0-4-0-4-0-4-0-4-0-4---h4-0-4-----------------|
      pm...............................................

      Chorus

     Play this once      

    E|-------------------|
    B|-------------------|
    G|-------------------|
    D|--0-0-0-0-3-3-3-3--|
    A|--0-0-0-0-3-3-3-3--|
    D|--0-0-0-0-3-3-3-3--|
      pm.......

     Then play this four times -this part goes fast so youll have to practice it

    E|---------------------------------|
    B|---------------------------------|
    G|---------------------------------|
    D|-0h-4-4-0h-4-4-4-4-0h-4---h4-0-4-|
    A|-0h-4-4-0h-4-4-4-4-0h-4-3-h4-0-4-|
    D|-0h-4-4-0h-4-4-4-4-0h-4---h4-0-4-|

     VERSE: envelope filter distortion  

    E|----10---8----4---5------------------------------|
    B|-------------------------------------------------|
    G|----7----5----1---2------------------------------|
    D|-------------------------------------------------|
    A|-------------------------------------------------|
    D|-------------------------------------------------|

     
     INTERLUDE: after bass solo
     
    E|-------------------------------------------------|
    B|-------------------------------------------------|
    G|-------------------------------------------------|
    D|-----6----6---------------//5--------------------|
    A|-------------------------------------------------|
    D|-------------------------------------------------|

Order: Intro Chorus Verse Chorus Verse Chorus Interlude Intro Chorus
            
Submit corrections

comments powered by Disqus
↑ Back to top | Incubus Tabs for Redefine. Lyrics for acoustic guitar and electric guitar. 1 Tablatures and chords are parodies/interpretations of the original songs. You may use it for private study, scholarship, research or language learning purposes only